Jamiroquai - Feel So Good Chords & Tabs

 

Feel So Good Chords & Tabs

Jamiroquai Chords & Tabs

Version: 2 Type: Bass Tab 0 ratings
1 star 2 stars 3 stars 4 stars 5 stars
comments

Feel So Good Bass Tab

Jamiroquai
A Funk Odyssey
Feel so Good

Tabbed by pIRHANA

Effect for interlude and chorus : Distortion

Verse

G----------------------------------------------|
D-----6----------------------------------------|
A-8p6----------0x3x--x5--6-x-6h8p6h8p6---------|
E---------x6p4---------------------------------|

Verse Variation
[ Tab from: http://www.guitartabs.cc/tabs/j/jamiroquai/feel_so_good_btab_ver_2.html ]
*NB there are lots of variations this is the main one
G---------------5-----------8------------------|
D-----6----------------------------------------|
A-8p6--------------3x--x5/6--x6h8p6h8p6--------|
E---------x6p4---------------------------------|

Chorus

G----------------------------------------------|
D----------------------------------------------|
A------8--6------------------------------------|
E--(4)-----8--6--4h6-6--4--4--4-0-4-0----------|

Interlude

G----------------------------------------------|
D----------------------------------------------|
A--6h8-888p6-----------------------------------|   X lots
E----------------------------------------------|
Comments