James Taylor - Sweet Baby James Chords & Tabs

 

Sweet Baby James Chords & Tabs

James Taylor Chords & Tabs

Version: 1 Type: Tab 0 ratings
1 star 2 stars 3 stars 4 stars 5 stars
comments

Sweet Baby James Tab

This is and easy and great sounding song. Here it is, nearly perfect so have fun.

sweet baby james
Tabbed by drunk in public


there is a young cowboy who lives on the range
e-------------------------------------------
B-------------------------------------------
G---------2--4--2---------4---2---0--2------
D---0--4---------------0--------------------
A-0-----------------------------------------
E-------------------------------------------


his horse and his cattle are his only companions 
e-------------------------------------------------------------
B-------------2-(2)-------------------------------------------
G----4--4--4---------4--2--4--2--(2)--2--4--2--------------2--
D-0---------------------------------------------4--0----4-----
A-------------------------------------------------------------
E-------------------------------------------------------------


he works in the saddle and he sleeps in the canyons
e-------------------------------------------------------------
B---------------2-(2)--------------2---------------------2----
G----4--4----4--------4----2--0--------4---0---4--(4)---------
D-0-----------------------------------------------------------
A-------------------------------------------------------------
E-------------------------------------------------------------

waiting for summer, his pastures to change 
e--------------------------------------------
B--------------------------------------------
G-0---0-----0--------------------------------
D---------------4---2---0--2---2----4---2----
A--------------------------------------------
E--------------------------------------------

and as the moon rises he sits by his fire
e--------------------------------------------
B--------------------------------------------
D-----4----4--4---4---2--0--4--2--0--2--(2)--
G--0-----------------------------------------
A--------------------------------------------
E--------------------------------------------

thinking about women and glasses of beer
e--------------------------------------------------
B----------------2---------------------------------
D--4--4----4--4------4----2--2---------------------
G------------------------------4--0----2-----------
A--------------------------------------------------
E--------------------------------------------------
[ Tab from: http://www.guitartabs.cc/tabs/j/james_taylor/sweet_baby_james_tab.html ]
and closing his eyes as the dogies retire
e--------------------------------------------------
B--------------------------------------------------
G---4--4---4--4--(4)--0--2--4--2---0--2------------
D-0------------------------------------------------
A--------------------------------------------------
E--------------------------------------------------

he sings out a song which is soft but its clear
e--------------------------------------------------
B---------------2--(2)-----------------------------
G-----4--4---4----------4---2---2------------------
D--0--------------------------------4---0--2/4-----
A--------------------------------------------------
E--------------------------------------------------

as if maybe someone could hear__________
e--------------------------------------------
B--------------------------------------------
G--------------------------------------------
D--0--2--2--(2)--2---4---2---(2)---(2)-------
A--------------------------------------------
E--------------------------------------------

Chorus:
So good night moon light ladies

e--------------------------------------------
B--------------------------------------------
G--------------0---0-------------------------
D--2---4---4------------4----2--4------------
A--------------------------------------------
E--------------------------------------------

rockabye sweet baby james

e--------------------------------------------
B--------------------------------------------
G--4----4--4---4--4---2---2--(2)-------------
D--------------------------------------------
A--------------------------------------------
E--------------------------------------------

Deep greens and blues are the colors i choose


e--------------------------------------------
B--------------------------------------------
G-4---4---4--4-(4)--4---2--2-(2)-------------
D---------------------------------4---0--0---
A--------------------------------------------
E--------------------------------------------

wont you let me go down in my dreams

e--------------------------------------------
B--------------------------------------------
G--------------------------------------------
D-0--2--2--2----2---2-(2)--2---2/4---2-------
A--------------------------------------------
E--------------------------------------------

and rockabye sweet baby james

e--------------------------------------------
B--------------------------------------------
G--0--0---0----------------------------------
D---------------4---2--0--------0--(0)-------
A----------------------------4---------------
E--------------------------------------------


repeat through verse 2
Comments