James Taylor - If I Keep My Heart Out Of Sight Chords & Tabs

 

If I Keep My Heart Out Of Sight Chords & Tabs

James Taylor Chords & Tabs

Version: 1 Type: Tab 0 ratings
1 star 2 stars 3 stars 4 stars 5 stars
comments

If I Keep My Heart Out Of Sight Tab

If I keep my heart out of sight
James Taylor

shakespeare382@yahoo.com
http://asaikadas.tripod.com
http://pinoywisespeak.neatvibe.com

I really love this song by james taylor.
I only tabulate the intro and the solo. I leave you the rest of the song.
I think its almost perfect.
Just enjoy it!!!! God Bless!!!

Standard tuning: (EADGBE)

Intro:

E-------------------------------------|
B-------------------------------------|
G---2--4--4/6--7--6--4--6--2--2-------|
D-4------------------------------4--2-|
A-------------------------------------|
E-------------------------------------|

E-------------------------I--2---0-----|
B-------------------------I--3---0-----|
G---2--4--4/6--2--2-------I--2---1-----|
D-4------------------4--2-I--4---2-----|
A-------------------------I--2---2-----|
E-------------------------I--x---0-----|
[ Tab from: http://www.guitartabs.cc/tabs/j/james_taylor/if_i_keep_my_heart_out_of_sight_tab.html ]
SOLO:
E-------------------------------------|
B-------------------------------------|
G---2--4--4/6--7--6--4--6--2--2-------|
D-4------------------------------4--2-|
A-------------------------------------|
E-------------------------------------|

E---------------------------------|
B---------------------------------|
G---2--4--4/6--4--6--7--7/9^------|
D-4-------------------------------|
A---------------------------------|
E---------------------------------|

E-----------------------------------------------------|
B-----------------------------------------------------|
G--------9--11^---------------------------------------|
D-9--11----------12--11--9----11-12-11--7-----7/9-----|
A------------------------------------------9------11--|
E-----------------------------------------------------|

E----------------------I----------2--0-----|
B----------------------I----------3--0-----|
G-------------------9^-I----------2--1-----|
D-11-12-11--9-11-12----I-12-11-9--4--2-----|
A----------------------I----------2--2-----|
E----------------------I----------x--0-----|
Comments