James Judd - Reality Chords & Tabs

 

Reality Chords & Tabs

James Judd Chords & Tabs

Version: 1 Type: Tab 0 ratings
1 star 2 stars 3 stars 4 stars 5 stars
comments

Reality Tab

   
                                "Reality"
                   Written and Performed By: James Judd
                           Tabbed By: James Judd


Kapoed on 3rd fret

E---------------------------------------------------------
B---------------------------------------------------------
G--------3--3--3--------3--3--3-3----3------3-----3------3
D-------3--3--3--------3--3--3-----3--3-3-3-----3--3-3-3--
A--3h5h6--5--6--5-3h5h6--5--3-------4--4---4-----4--4---4-
E-6--------------6-------------6--6------6-----6------6---

E----------------------------------
B----------------------------------
G---3--3--3--3--3--3--3--3-5--3-5-3
D--3--3--3--3--3--3--3--3----------
A----6--5--6-----6--5--6-----------
E-6-----------6--------------------

Verse 1

E-----------3----5-5-5-5h6p5p3--6-6--6
B----6-------3---6-6-6-6-6-6-6--6-6--6
G---3-3-------3--5-5p3h5-5-5-5--3-3--3
D--3---3---5---5----------------5-5--3  x2
A-------3-5---------------------6-6--5
E-5------3----------------------x-x--6

Chorus: Do sames a verse (Louder)
Verse 2
Chorus

Bridge:

E---------4---4--4----------4---4--4-4
B-4--4--4--6---5-------------6---6---6
G--5--5-----5---6--3---3--3---5---5--5
D---5--5--3---3-----3---3---3---3-----
A-3--3---------------4---4------------
E------------------6---6--------------
[ Tab from: http://www.guitartabs.cc/tabs/j/james_judd/reality_tab.html ]
Solo:
Acoustic
E-5h6p5p3-5h6p5-5h6p5p3h8/108-5h6p5p3-5h6p5-5h6p5p3h8/108
B--------------6----------------------------6--------------
G----------------------------------------------------------
D----------------------------------------------------------
A----------------------------------------------------------
E----------------------------------------------------------

E-12h13p1210h12p108h10p86h8p65h6p5p3h8/108-5h6p5--------------
B----------------------------------------------------*6-4h6p4h6/9p6
G------------------------------------------------------------------
D------------------------------------------------------------------
A------------------------------------------------------------------
E------------------------------------------------------------------

*Electric Starts in

E-----------------------------------------------
B-4h6p4h6/11p9-4h6p4h6/9p6-4h6p4h6/12p11-9p7/9p6
G-----------------------------------------------
D-----------------------------------------------
A-----------------------------------------------
E-----------------------------------------------

Chorus
Repeat Intro:

Then

E-----------3----5-5h6p5p3h5-8-8-*6 *Let Ring
B----6-------3---6-6-6-6-6-6-6-6--6
G---5-5-------3--5-5-5-5-5-5-5-5--3
D--3---3---5---5------------------3
A-------3-5-----------------------5
E-5------3------------------------6


Comments