James Jesse - Dear Jesus Chords & Tabs

 

Dear Jesus Chords & Tabs

James Jesse Chords & Tabs

Version: 1 Type: Bass Tab 0 ratings
1 star 2 stars 3 stars 4 stars 5 stars
comments

Dear Jesus Bass Tab

Artist - Jesse James
Album - Mission
Song - Dear Jesus

A really good song from their second album, Mission.

Verse (00:51)


|-----------------|-----------------|-----------------|-----------------| \
|-----------------|-----------------|-----------------|-----------------|  |
|-5-5-5-5-5-5-5-5-|-5-5-5-5-5-5-5-5-|-2-2-2-2-2-2-2-2-|-2-2-2-2-2-2-2-2-|  |
|-----------------|-----------------|-----------------|-----------------|  |
                                                                           | x2
|-----------------|-----------------|-----------------|-----------------|  |
|-----------------|-----------------|-----------------|-----------------|  |
|-----------------|-----------------|-5-5-5-5-5-5-5-5-|-5-5-5-5-5-5-5-5-|  |
|-3-3-3-3-3-3-3-3-|-3-3-3-3-3-3-3-3-|-----------------|-----------------| /


Chorus (01:15)

 
|-----------------|-----------------|-----------------|-----------------| \
|-----------------|-----------------|-----------------|-----------------|  |
|-5-5-5-5-5-5-5-5-|-5-5-5-5-5-5-5-5-|-2-2-2-2-2-2-2-2-|-2-2-2-2-2-2-2-2-|  |
|-----------------|-----------------|-----------------|-----------------|  |
                                                                           | x2
|-----------------|-----------------|-----------------|-----------------|  |
|-----------------|-----------------|-----------------|-----------------|  |
|-----------------|-----------------|-5-5-5-5-5-5-5-5-|-5-5-5-5-5-5-5-5-|  |
|-3-3-3-3-3-3-3-3-|-3-3-3-3-3-3-3-3-|-----------------|-----------------| /

Bridge  (01:41)

|-----------------|-----------------|-----------------|-----------------|
|-----------------|-----------------|-----------------|-----------------|
|-5-5-5---5-5-5-5-|-0-0-0---0-0-0-0-|-1-1-1---1-1-1-1-|-0-0-0---0-0-0-0-|
|-----------------|-----------------|-----------------|-----------------| x3

Verse (02:18)
[ Tab from: http://www.guitartabs.cc/tabs/j/james_jesse/dear_jesus_btab.html ]
|-----------------|-----------------|-----------------|-----------------|  
|-----------------|-----------------|-----------------|-----------------|  
|-----------------|-----------------|-----------------|-----------------|  
|-----------------|-----------------|-----------------|-----------------|  
 
|-----------------|-----------------|-----------------|-----------------|  
|-----------------|-----------------|-----------------|-----------------|  
|-----------------|-----------------|-----------------|-----------------|  
|-----------------|-----------------|-----------------|-----------------|  


|-----------------|-----------------|-----------------|-----------------| 
|-----------------|-----------------|-----------------|-----------------|  
|-5-5-5-5-5-5-5-5-|-5-5-5-5-5-5-5-5-|-2-2-2-2-2-2-2-2-|-2-2-2-2-2-2-2-2-|  
|-----------------|-----------------|-----------------|-----------------|  
                                                                           
|-----------------|-----------------|-----------------|-----------------|  
|-----------------|-----------------|-----------------|-----------------|  
|-----------------|-----------------|-5-5-5-5---------|-----------------|  
|-3-3-3-3-3-3-3-3-|-3-3-3-3-3-3-3-3-|---------5-5-5-5-|-5-5-5-5-5-5-5-5-| 

Pre-Chorus (02:43)


|-----------------|-----------------|-----------------|-----------------|
|-----------------|-----------------|-----------------|-----------------|
|-----------------|-----------------|-5-5-5-5-5-5-5-5-|-5-5-5-5-5-5-5-5-|
|-3-3-3-3-3-3-3-3-|-3-3-3-3-3-3-3-3-|-----------------|-----------------|

Chorus (02:49)

|-----------------|-----------------|-----------------|-----------------| 
|-----------------|-----------------|-----------------|-----------------|  
|-5-5-5-5-5-5-5-5-|-5-5-5-5-5-5-5-5-|-2-2-2-2-2-2-2-2-|-2-2-2-2-2-2-2-2-|  
|-----------------|-----------------|-----------------|-----------------| 
                                                                          
|-----------------|-----------------|-----------------|-----------------|
|-----------------|-----------------|-----------------|-----------------|
|-----------------|-----------------|-5-5-5-5-5-5-5-5-|-5-5-5-5-5-5-5-5-|  
|-3-3-3-3-3-3-3-3-|-3-3-3-3-3-3-3-3-|-----------------|-----------------| 

Outro (03:02)

|-----------------|-----------------|-----------------|-----------------|  
|-----------------|-----------------|-----------------|-----------------|
|-5-5-5-5-5-5-5-5-|-5-5-5-5-5-5-5-5-|-2-2-2-2-2-2-2-2-|-2-2-2-2-2-2-2-2-|  
|-----------------|-----------------|-----------------|-----------------| 
                                                                          
|-----------------|-----------------|-----------------|-----------------|
|-----------------|-----------------|-----------------|-----------------|
|-----------------|-----------------|-----------------|-5---------------|
|-3-3-3-3-3-3-3-3-|-3---------------|-2-------0-------|-----------------|
Comments