James Gang - Must Be Love Chords & Tabs

 

Must Be Love Chords & Tabs

James Gang Chords & Tabs

Version: 2 Type: Bass Tab 0 ratings
1 star 2 stars 3 stars 4 stars 5 stars
comments

Must Be Love Bass Tab

TITLE: Must Be Love    by James Gang (Bang!  album)
TABBED by hawkhuff


  Intro: 3X      1X into verse.
G----------|-----------|
D---5------|---5-------|
A--5-7-5-7-|--5-7-5-7--|
E-------5--|-------5-5-|

  Verse: 3X                  4 th 
G-------------------------|---------------------|
D--------------------5----|---------------------|
A--77----5-577-----5--77--|--77----5-57----5----|
E----H567-7----H567-7-----|----H567-7--H567-----|

     3X                      4 th 
G-------------------------|---------------------|
D--------------------5----|---------------------|
A--77----5-577-----5--77--|--77----5-57-H7/5----|
E----H567-7----H567-7-----|----H567-7-------73--|
[ Tab from: http://www.guitartabs.cc/tabs/j/james_gang/must_be_love_btab_ver_2.html ]
  Chorus:
 Must be love.....                     2X repeat
G-----------7----|-----------------|-----------|-----|
D-------H7/9-97--|----------7------|--------2--|-----|
A--5S7/9-------7-|------H7/9-979-7-|------24---|-5---|
E----------------|-5S7/9-----------|-0S2/4-----|-----|

  Back to Verse.
  Chorus.

  Bridge: 2x
G--------5---|--------|
D------57-57-|--------|
A--H567------|-H7/5---|
E------------|-----73-|

                             Chord.
G----------5---|--------------9-|
D--------57-57-|--------------9-|
A----H567------|-H7/5---H7/5--7-|
E--------------|-----73-----5---|

  Lead is basically the same as verse.
  Outro is repeat of chorus.

questions:   hawkhuff@msn.com
Comments