James Gang - Funk Chords & Tabs

 

Funk Chords & Tabs

James Gang Chords & Tabs

Version: 1 Type: Bass Tab 0 ratings
1 star 2 stars 3 stars 4 stars 5 stars
comments

Funk Bass Tab

Funk #49 - James Gang

bass enter at about 0:12 seconds
[ Tab from: http://www.guitartabs.cc/tabs/j/james_gang/funk_btab.html ]
  intro                             verse riff (just a sample)
G|---------------------------------|-------------------------75----|
D|75---------57-75--------575------|75---------57-75------5-7---75-|
A|--75---57-7-----7-55-357---753---|--7----57-7-----7-55-7---------|
E|----55------------------------55-|----55-------------------------|

  chorus
   (x4)         (x4)
G|------------|-----------|---|
D|75----------|97---------|---|
A|--75-3------|--97-5-----|7--|
E|-------35-5-|-------57--|---|

The best thing to do is to learn the root notes and create improv inbetween

A quick tab by Achilles (blue_sincere@hotmail.com)

Comments