James Gang - Funk 49 Chords & Tabs

 

Funk 49 Chords & Tabs

James Gang Chords & Tabs

Version: 1 Type: Tab 0 ratings
1 star 2 stars 3 stars 4 stars 5 stars
comments

Funk 49 Tab

FUNK #49  
James Gang


Sleep all day, out all night.
I know where you’re going.
I don’t think that’s acting right,
You don’t think it’s showing.      


Jumping up falling down,
Don’t misunderstand me.
You don’t think I don’t know your plan,
What you trying to hand me?

Out all night, sleep all day,
I know what you’re doing.
If you’re gonna act that way,
I think there’s trouble brewing!


         
Main riff (played thru verse)

E|----------------------|----------------------|
B|------5-----7---5-----|----7h8---7---7---5---|
G|------5h6---7---5h6---|----7-----7---7---5h6-|
D|------5-----7---5-----|----7h9---7---7---5---|
A|------0---------0-----|------------------0---|
E|----------------------|----------------------|
[ Tab from: http://www.guitartabs.cc/tabs/j/james_gang/funk_49_tab.html ]
 

Riff 2 (after each verse)

E|---------------------------|----------------------|
B|---------------------------|----------------------|
G|---------------------------|----------------------|
D|-----7-5---------------7---|---7-5----------------|		2x 
A|----------7-5-3--------7---|--------7-5-3---------|
E|-----------------3-5---5---|----------------3-5---|


E|---------------------------|----------------------|
B|---------------------------|----------------------|
G|---------------------------|----------------------|
D|-----9-7---------------9---|---9-7----------------|		2x 
A|----------9-7-5--------9---|--------9-7-5---------|
E|-----------------5--7—-7---|----------------5-7---|


after the last note hit an E7#9 ( 07678x )



pc2520@hotmail.com
Comments