James Gang - Closet Queen Chords & Tabs

 

Closet Queen Chords & Tabs

James Gang Chords & Tabs

Version: 2 Type: Bass Tab 0 ratings
1 star 2 stars 3 stars 4 stars 5 stars
comments

Closet Queen Bass Tab

Closet Queen  - James Gang (Rides Again)
Dedicated to Jake Lengen

TABBED by hawkhuff

    Intro and verse:
G-----------------------------------|
D-----------------5--7--------------|
A----H5/777-77--------H5/777S-------|
E-----------------------------------|
[ Tab from: http://www.guitartabs.cc/tabs/j/james_gang/closet_queen_btab_ver_2.html ]
     Verse: (the variation riff in the verse)
G--------------------------------|
D--------------------------------|
A----H5/777-77-5--H5/777S--------|
E----------------5---------------|

     Bridge: 4X
G-----------------------------------|
D-----------------------------------|
A----H5/7--5---5---5--7-------------|
E----------- 5----5-----------------|

     Lead: (can do some improv here)
G------------------------------------|
D---9----9----99---------------------|
A-----77-----------------------------|
E-----------77-----------------------|


Back to verse.

Questions: hawkhuff@msn.com
Comments