James Elmore - Dust My Broom Chords & Tabs

 

Dust My Broom Chords & Tabs

James Elmore Chords & Tabs

Version: 1 Type: Tab 0 ratings
1 star 2 stars 3 stars 4 stars 5 stars
comments

Dust My Broom Tab

   
DUST MY BROOM
As recorded by Elmore James
(From the 1992 Album ELMORE JAMES: KING OF THE SLIDE GUITAR)

both open D tuning - D A D F# A D
Gtr I - 'Elomore James w/slide acoustic w/slight amp overdrive'
Gtr II - 'Rhythm steel acoustic w/slight amp overdrive'

Intro
  Q=116(8=s8)
 4/4
  Gtr I
            ~~~~~~~~~~~~~~~~~~~
    |---3---|  |---3---|  |---3---|  |---3---|                   |-3-|
    E  E    E  E  E    E  E  E    E  E  E    E     E Q   E E  E  E E E
|-/12-12---12-12-12---12-12-12---12-10------10-|-----0-----------------|
|-/12-12---12-12-12---12-12-12---12----12------|-----------------------|
|-/12-12---12-12-12---12-12-12---12------------|-/12-------------0-----|
|----------------------------------------------|-------------(0)---0-0-|
|----------------------------------------------|-----------------------|
|----------------------------------------------|-----------------------|
|
| Gtr II
|                                                                |-3-|
|   E    E     E    E     E    E     E    E        E E E E E  E  E E E
|----------------------------------------------|-----------------------|
|----------------------------------------------|-----------------------|
|----------------------------------------------|-----------------------|
|----------------------------------------------|-------------------0---|
|---0----0-----0----0-----0----0-----0----0----|---0-0-2-2-0--0--2---0-|
|---0----0-----0----0-----0----0-----0----0----|---0-0-0-0-0--0------0-|


            ~~~~~~~~~~~~~~~~~~~
    |---3---|  |---3---|  |---3---|  |---3---|
    E  E    E  E  E    E  E  E    E  E  E    E
|-/12-12---12-12-12---12-12-12---12-10------10---|
|-/12-12---12-12-12---12-12-12---12----12--------|
|-/12-12---12-12-12---12-12-12---12--------------|
|------------------------------------------------|
|------------------------------------------------|
|------------------------------------------------|
|
|   E    E     E    E     E    E     E    E
|------------------------------------------------|
|------------------------------------------------|
|------------------------------------------------|
|------------------------------------------------|
|---0----0-----2----2-----0----0-----2----2------|
|---0----0-----0----0-----0----0-----0----0------|


             |-3-|    |----3----|                                   |--3--|
    E  Q   E E   Q    E  A  E   E   W                   H       Q   E E   E
|------0-------------12-----------|-------------------|---------------------|
|---------------------------------|-------------------|---------------------|
|-/12\------------------12s10---0-|-------------------|---------------------|
|--------------/12----------------|-------------------|---------------0---0-|
|---------------------------------|-------------------|---------------------|
|---------------------------------|-------------------|---------------------|
|
|                                               |-3-|
|   E  E E E E     E  E       E     E E E E E E E E E   E E E E E E E   E
|---------------------------------|-------------------|---------------------|
|---------------------------------|-------------------|---------------------|
|----------0-0--------------------|-------------------|---------------------|
|----------0-0--------------------|-5-------5-----5---|-5---5---5---5-------|
|---0--0-2-0-0-----0--2-------2---|-5-5-7-7-5-5-7---5-|-5-5-5-7-5-5-5---7---|
|---0--0-0---------0--0-------0---|-5-5-5-5-5-5-----5-|-5-5-5-5-5-5-5---5---|


            ~~~~~~~~~~~~~~~~~~~
    |---3---|  |---3---|  |---3---|  |---3---|
    E  E    E  E  E    E  E  E    E  E  E    E
|-/12-12---12-12-12---12-12-12---12-10------10-|
|-/12-12---12-12-12---12-12-12---12----12------|
|-/12-12---12-12-12---12-12-12---12------------|
|----------------------------------------------|
|----------------------------------------------|
|----------------------------------------------|
|
|   E    E     E    E     E    E     E    E
|----------------------------------------------|
|----------------------------------------------|
|----------------------------------------------|
|----------------------------------------------|
|---0----0-----2----2-----0----0-----2----2----|
|---0----0-----0----0-----0----0-----0----0----|


               |-3--|    |3-|
    E  Q.     +E    Q    E  Q      H       E E E E
|------0------(0)-------12-------|---------------0-|
|--------------------------------|-----------------|
|-/12\------------/12------12\---|-------------x---|
|--------------------------------|-----------7-----|
|--------------------------------|-----------------|
|--------------------------------|-----------------|
|
|   E  E  E E  E      E  E     E   E E E E E E E E
|--------------------------------|-----------------|
|--------------------------------|-----------------|
|--------------------------------|-----------------|
|--------------------------------|-----------------|
|---0--0--2-0--0------0--2-----0-|-7-7-9-9-7-7-9-5-|
|---0--0--0-0--0------0--0-----0-|-7-7-7-7-7-7-7-5-|


                            |--3--| |--3--| |--3--|   |--3--| |3|
  +E  E Q   E E Q       E E E E   E E E   E E E   E   E E   E E Q   +E  E Q
|-(0)-----------------|---0---0-------0-------0-----|-------------------0-0---||
|---------------------|-----------------------------|-----------0---(0)-------||
|-------5-------------|-----------------------------|-------------------------||
|-----5-------5-------|-----------------------------|---------0---------------||
|---------------------|-----3-----3-2-----2-1-----1-|-0-----0-----------------||
|---------------------|-----------------------------|-------------------------||
|
|               |-3-|
|  E  E E E E E E E E   E E E   E   E   E   E   E     E   E   E   E  E  E E E
|---------------------|-----------------------------|-------------------------||
|---------------------|-----------------------------|-------------------------||
|---------------------|-----------------------------|-------------------------||
|---------------------|-----------------------------|-0-----------------------||
|--5--5-7-7-5-5-7-5---|-----3---3---2---2---1---1---|-0-------0---0--0--0-0---||
|--5--5-5-5-5-5-5-5-5-|-0-0-------------------------|-0---0-----------------0-||


   Verses
    W                 W
||------------------|-------------------|
||o-----------------|-------------------|
||------------------|-------------------|
||------------------|-------------------|
||o-----------------|-------------------|
||------------------|-------------------|
|
|                                 |-3-|
|   E E E E E E E E   E E E E E E E E E
||------------------|-------------------|
||o-----------------|-------------------|
||------------------|-------------------|
||------------------|---------------0---|
||o-0-0-0-0-0-0-0-0-|-0-0-2-2-0-0-2---0-|
||--0-0-0-0-0-0-0-0-|-0-0-0-0-0-0-----0-|


            ~~~~~~~~~~~~~~~~~~~
    |---3---|  |---3---|  |---3---|   |---3---|
    E  E    E  E  E    E  E  E    E   E  E    E     E Q   E H
|-/12-12---12-12-12---12-12-12---12-\10------10-|-----0---------------|
|-/12-12---12-12-12---12-12-12---12-----12------|---------------------|
|-/12-12---12-12-12---12-12-12---12-------------|-/12-----------------|
|-----------------------------------------------|---------------------|
|-----------------------------------------------|---------------------|
|-----------------------------------------------|---------------------|
|
|   E    E     E    E     E    E      E    E        E E E E E E E E
|-----------------------------------------------|---------------------|
|-----------------------------------------------|---------------------|
|-----------------------------------------------|---------0-0---------|
|-----------------------------------------------|---------0-0---------|
|---0----0-----2----2-----0----0------2----2----|---0-0-2-0-0-0-2-2---|
|---0----0-----0----0-----0----0------0----0----|---0-0-0-----0-0-0---|

[ Tab from: http://www.guitartabs.cc/tabs/j/james_elmore/dust_my_broom_tab.html ]
  W                   W
|-------------------|-----------------|
|-------------------|-----------------|
|-------------------|-----------------|
|-------------------|-----------------|
|-------------------|-----------------|
|-------------------|-----------------|
|
|             |-3-|
| E E E E E E E E E   E E E E E E E E
|-------------------|-----------------|
|-------------------|-----------------|
|-------------------|-----------------|
|-5-------5-----5---|-5---5---5---5---|
|-5-5-7-7-5-5-7---5-|-5-5-5-7-5-5-5-7-|
|-5-5-5-5-5-5-----5-|-5-5-5-5-5-5-5-5-|


            ~~~~~~~~~~~~~~~~~~~
    |---3---|  |---3---|  |---3---|   |---3---|
    E  E    E  E  E    E  E  E    E   E  E    E     E Q   E H
|-/12-12---12-12-12---12-12-12---12-\10------10-|-----0---------------|
|-/12-12---12-12-12---12-12-12---12-----12------|---------------------|
|-/12-12---12-12-12---12-12-12---12-------------|-/12-----------------|
|-----------------------------------------------|---------------------|
|-----------------------------------------------|---------------------|
|-----------------------------------------------|---------------------|
|
|   E    E     E    E     E    E      E    E        E E E E E E E E
|-----------------------------------------------|---------------------|
|-----------------------------------------------|---------------------|
|-----------------------------------------------|---------------------|
|-----------------------------------------------|---------------------|
|---0----0-----2----2-----0----0------2----2----|---0-0-2-0-0-0-2-0---|
|---0----0-----0----0-----0----0------0----0----|---0-0-0-0-0-0-0-0---|



  W                 W
|-----------------|-------------------|
|-----------------|-------------------|
|-----------------|-------------------|
|-----------------|-------------------|
|-----------------|-------------------|
|-----------------|-------------------|
|
|                               |-3-|
| E E E E E E E E   E E E E E E E E E
|-----------------|-------------------|
|-----------------|-------------------|
|-----------------|-------------------|
|-----------------|-------------------|
|-7-7-9-9-7-7-9-5-|-5-5-7-7-5-5-7-5---|
|-7-7-7-7-7-7-7-5-|-5-5-5-5-5-5-5-5-5-|


                               1.,2.,3.
      |--3--| |--3--| |--3--|   |--3--| |3|
  E E E E   E E E   E E E   E   E E   E E Q   +E  E Q
|---0---0-------0-------0-----|-------------------0-0-----||
|-----------------------------|-----------0---(0)--------o||
|-----------------------------|---------------------------||
|-----------------------------|---------0-----------------||
|-----3-----3-2-----2-1-----1-|-0-----0------------------o||
|-----------------------------|---------------------------||
|
| E E E   E   E   E   E   E     E   E   E   E  E  E E E
|-----------------------------|---------------------------||
|-----------------------------|--------------------------o||
|-----------------------------|---------------------------||
|-----------------------------|-0-------------------------||
|-----3---3---2---2---1---1---|-0-------0---0--0--0-0----o||
|-0-0-------------------------|-0---0-----------------0---||


                                Outro Solo
  4.
                                   ~~~~~~~~~~~~~~~~~~~~~~~
  |--3--|           |---3---|      |3-|                |---3----|
  E E   E E E +E  E E  E    E      E  Q    +H         +E   E    E
|-----------------------------||----------------------------------|
|-----------0-(0)-------------||----------------------------------|
|-----------------------------||-/12------------------------------|
|---------------------10---12-||-----12---(12)-------(12)-10---12-|
|-0-----0---------------------||----------------------------------|
|-----------------------------||----------------------------------|
|
| E   E   E E  E  E E    E         E    E   E  E E E   E     E
|-----------------------------||----------------------------------|
|-----------------------------||----------------------------------|
|-----------------------------||----------------------------------|
|-0---------------------------||----------------------------------|
|-0-------0-0--0--0-0---------||---0----0---0--0-0-0---0-----0----|
|-0---0------------------0----||---0----0---0--0-0-0---0-----0----|


                    ~~~~~~~~~~~~~
    Q    Q    E  E  Q        +Q    Q   H
|-------------------------|--------------------|
|-------10---11s12--------|--------------------|
|-/11--------11s12--------|--------------------|
|------------------12-----|-(12)---------------|
|-------------------------|--------------------|
|-------------------------|--------------------|
|
|                   |-3-|
|   E E  E E  E  E  E E E     E  E E E E E E E
|-------------------------|--------------------|
|-------------------------|--------------------|
|-------------------------|--------------------|
|---------------------0---|--------------------|
|---0-0--2-2--0--0--2---0-|---0--0-2-2-0-0-2-2-|
|---0-0--0-0--0--0------0-|---0--0-0-0-0-0-0-0-|


               |---3----|                       |--3---|
  H       E E +E   E    E     E  Q.      +E  E +E   E  E
|-----------0-(0)---------|------------------0-(0)-------|
|-------------------------|------------------------------|
|-------------------------|-/11--------------------------|
|-----------------10---12-|-----12------(12)-------10-12-|
|-------------------------|------------------------------|
|-------------------------|------------------------------|
|
|                                               |--3---|
| E E E E E E  E     E        E  E  E E   E  E  E   E  E
|-------------------------|------------------------------|
|-------------------------|------------------------------|
|-------0-0---------------|------------------------------|
|-------0-0---------------|---5-----------5---------5----|
|-0-0-2-0-0-0--2-----2----|---5--5--7-7---5--5--7------5-|
|-0-0-0-----0--0-----0----|---5--5--5-5---5--5---------5-|



    Q    E  E  E  E  Q      Q    Q   H
|------------------------|-------------------|
|-------10s12------------|-------------------|
|-/11---------11s12------|-------------------|
|-------------------12---|-------------------|
|------------------------|-12\---------------|
|------------------------|-------------------|
|
|   E E  E  E  E  E  E E    E  E E E E E E E
|------------------------|-------------------|
|------------------------|-------------------|
|------------------------|-------------------|
|---5----5-----5-----5---|-------------------|
|---5-5--5--7--5--5--5-7-|--0--0-2-2-0-0-2-2-|
|---5-5--5--5--5--5--5-5-|--0--0-0-0-0-0-0-0-|


                                 |---3---|       |---3---|
  H       Q     E   E     E   E  E  E    E  E  E E  E    E
|---------------------|------------------------------------|
|-------------/12-/12-|-/12-/12-12s10----------------------|
|---------------------|-----------------11-----------------|
|---------------------|--------------------12\-7---10---12-|
|---------------------|------------------------------------|
|---------------------|------------------------------------|
|
| E E E E E E   E   E     E   E  E    E     E  E E    E
|---------------------|------------------------------------|
|---------------------|------------------------------------|
|---------------------|------------------------------------|
|---------------------|------------------------------------|
|-0-0-2-0-0-0---2---0-|---7---7--9----9-----7--7-9----5----|
|-0-0-0-0-0-0---0---0-|---7---7--7----7-----7--7-7----5----|


                     ~~                                  ~~~~~~~
   E  E  E  E  E  E  Q        E  E Q   H         E E  E  E  +H
|--------------------------|-------0---0-------|-0---11-12-(12)----*|
|-------10s12--------------|-------3---2-------|-0---11-12-(12)----*|
|-11s12-------11s12--------|-------------------|-----11-12-(12)----*|
|-------------------12-----|-------------------|-------------------*|
|--------------------------|-12\---------------|-------------------*|
|--------------------------|-------------------|-------------------*|
|
|                    |-3-|
|  E  E  E  E  E  E  E E E    E  E E E E E E E   E E  E  E  +H
|--------------------------|-------------------|---------0--(0)----*|
|--------------------------|-------------------|---------0--(0)----*|
|--------------------------|-------------------|---------0--(0)----*|
|--------------------------|-------------------|---------0--(0)----*|
|--5--5--7--7--5--5--7-5---|-------3-3-2-2-1-1-|-0-----------------*|
|--5--5--5--5--5--5--5-5-5-|--0--0-------------|-0-----------------*|
Comments