James Brown - The Spank Chords & Tabs

 

The Spank Chords & Tabs

James Brown Chords & Tabs

Version: 1 Type: Bass Tab 0 ratings
1 star 2 stars 3 stars 4 stars 5 stars
comments

The Spank Bass Tab

Song: The Spank
Artist: James Brown
Album: Dead On The Heavy Funk (1975-83)
Tabbed by: Dave Miller (dave@basstabarchive.com)
http://www.basstabarchive.com/

Funky as all hell...

"1, 2, 3, hah!"

Part I
[ Tab from: http://www.guitartabs.cc/tabs/j/james_brown/the_spank_btab.html ]
G|--------------------------|-------|-------|-----------------|
D|*-------------------------|-15h16-|-10h12-|-----------------|
A|*--5----------5--------5--|-------|-------|-5-5-3-3-5-5-3-3-|
E|-----5-5--1-1------1-5----|-------|-------|-----------------|
    			     Fill 1  Fill 2     Fill 3

Part II

G|--------------------------------------|
D|*--5----------5--------5--------------|
A|*----5-5--1-1------1-5----------------|
E|--------------------------------------|
	
		
Part III

G|--------------------------------------|
D|*-----------x-10-7--------------------|
A|*------------------10-7---------------|
E|---5-x-5-5----------------------------|


Structure:

Part I x 15
Part II x 7
Part I x 11
Part III x 8
Part I x 8
Part II x 4
Part I x 10
Part III x 8
Part I x 18
Comments