James Brown - Play That Funky Music Chords & Tabs

 

Play That Funky Music Chords & Tabs

James Brown Chords & Tabs

Version: 2 Type: Tab 0 ratings
1 star 2 stars 3 stars 4 stars 5 stars
comments

Play That Funky Music Tab

e---------------------
b---------------------  main riff
g---------------------
d---------------------         your going to repeat that 23 more times
a-------7-5-7-----5^7-
E---0-0-------5^7-----

e---------------- ------------ ------------ -------------
b---------------- ------------ ------------ -------------
g---------------- ------------ ------------ -------------
d---------------- ------------ ------------ -------------
a---7-7--7--7--7- -7--7--7--7- -7--7--7--7- -7--7--7-----
E---0-0--0--0--0- -0--0--0--0- -0--0--0--0- -0--0--0--1-2
[ Tab from: http://www.guitartabs.cc/tabs/j/james_brown/play_that_funky_music_tab_ver_2.html ]
e---------------------        ----------- ----------------
b---------------------        ----------- ----------------
g---------------------        ----------- --9--7---7------
d-------5-3-5-----3^5- repeat ------8-8b- -------9----9-7-
a-------------3^5----- 4 more ----------- ----------------
E---3-3--------------- times  -6--------- ----------------

e------------------- ---  the thing about this obscure 7 is the fact that
b------------------- ---  two guitars play this song so one drops out and 
g------------------- ---  the other plays this part then comes back in 
d---9-9-7-5-7-5----- ---  playing the main riff on that 7 it sounds confusing
a---------------7-5- -7-  but it isnt. i havent workrd out the solo yet but 
E------------------- ---  im getting there
Comments