James Blunt - You're Beautiful Chords & Tabs

 

You're Beautiful Chords & Tabs

James Blunt Chords & Tabs

Version: 4 Type: Tab

You're Beautiful Tab

   
Song: You’re Beautiful
Artist: James Blunt
Tab Edited by: Joeffrey Sevilla (Joeallives@yahoo.com)
 
(Magandang araw sa mga naghahanap ng Tab na eto, this was the First Tab na naisubmit ko
d2.. Kumuha lng ako ng ibang tab na ginawa kong preference at inedit ko n lng at pinag-
aralan ang timing. Gumamit din ako nga guitar pro as another preferrence... Kung kung
naghahanap kayo ng full version na Guitar pro 4.. I am willing to send you the installer
sa inyong E-mail address pati na ung Update at Serial No#... at kayo n lng bahala...
Salamat… sana magustuhan nyo eto...)

Standard Tuning

2 guitars - Capo on the 3rd Fret

Intro Lead: 

Guitar 1:
1	        2	           3
e|------------------|---------------|-----------------|
B|------------------|---------------|-----------------|
G|------------------|---------------|-2-2-0-2---0-2---|
D|-2-2-0-2---0-2----|---------------|-----------------|
A|------------------|-2-2-0---2-0-2-|-----------------|
E|------------------|---------------|-----------------|

Guitar 1:
4	          5		   6	       7
e|--------------------|-----------------|----------------|---------------↓-|
B|-1-1-0-1----0--1----|-----------------|----------------|---------------↓-|
G|------------↓-------|-----------------|----------------|-2-2--2---0--2-↓-|
D|------------↓-------|-2-2-0-2---0-2-0-|----------------|----------↓----↓-|
A|------------↓-------|-----------↓-----|-2-2-0-2---0-2--|----------↓----↓-|
E|------------↓-------|-----------↓-----|---↓-------↓----|----------↓----↓-|

Guitar 2:
4	          5		   6	       7
e|--------------------|-----------------|---1------------|------------------|
B|--------------4-3-4-|------------4-3-4|-----------4-3-4|------------------|
G|------------3-------|-----------3-----|----------------|----------0----1--|
D|--------------------|-----------------|----------------|------------------|
A|--------------------|-----------------|----------------|------------------|
E|--------------------|-----------------|----------------|------------------|

Guitar 1
8	        9		10	      11
e|------------------|-----------------|-----------------|------------------|
B|-1-1-0-1---0-1----|-----------------|-----------------|------------------|
G|-----------↓------|-----------------|-----------------|-2-0-2-0-2---0-2--|
D|-----------↓------|-2-2-0-2---0-2---|-----------------|-------------↓----|
A|-----------↓------|---↓-------↓-----|-2-2-0-2---0-2---|-------------↓----|
E|-----------↓------|---↓-------↓-----|---↓-------↓-------|-----------↓----|
		     My Life is Brilliant
Guitar 2:
8	        9		10	      11
e|------------------|-----------------|---1-------------|------------------|
B|-------------4-3-4|------------4-3-4|------------4-3-4|------------------|
G|-----------3------|-----------3-----|-----------------|-------------0---1|
D|------------------|-----------------|-----------------|------------------|
A|------------------|-----------------|-----------------|------------------|
E|------------------|-----------------|-----------------|------------------|

Guitar 1:
12
e|----------------|
B|-1-1-0-1---0-1—-|
G|----------------|
D|----------------|
A|----------------|
E|----------------|

C
My life is brilliant. 
G
My love is pure. 
Am
I saw an angel. 
F
Of that I'm sure. 

e|-----------------|
B|-----------------|
G|-----------------|
D|-2-2-0-2---0-2---|
A|---↓-------↓-----|
E|---↓-------↓-----|
 C
She smiled at me on the subway. 

e|-----------------|
B|-----------------|
G|-----------------|
D|-----------------|
A|-2-2-0-2---0-2---|
E|---↓-------↓-----|
        G
She was with another man. 

e|------------------|
B|------------------|
G|-2-0-2-0-2---0-2--|
D|-------------↓----|
A|-------------↓----|
E|-------------↓----|
    Am
But I won't lose no sleep on that, 





[ Tab from: http://www.guitartabs.cc/tabs/j/james_blunt/youre_beautiful_tab_ver_4.html ]
e|----------------|
B|-1-1-0-1---0-1—-|
G|----------------|
D|----------------|
A|----------------|
E|----------------|
 F
'Cause I've got a plan. 


F            G   C  
You're beautiful. You're beautiful. 
F            G          C
You're beautiful, it's true.

e|---------------------0--0--0--|
B|---------------------1--1--1--|
G|---------------------0--0--2--|
D|---------------------2--2--2--|
A|---------------------3--2--0--|
E|------------------------------|

F          G         C  C/B    Am 
I saw your face in a crowded place,
      F          G       Am 
And I don't know what to do, 
            F     G       *C
'Cause I'll never be with you. 

Lead:
e|--------------------|-----------------|---1------------|------------------|
B|--------------4-3-4-|------------4-3-4|-----------4-3-4|------------------|
G|------------3-------|-----------3-----|----------------|----------0----1--|
D|--------------------|-----------------|----------------|------------------|
A|--------------------|-----------------|----------------|------------------|
E|--------------------|-----------------|----------------|------------------|

Yeah, she caught my eye, 
As we walked on by s
She could see from my face that I was, 
Fucking high, 

e|-----------------|-----------------|
B|-----------------|-----------------|
G|-----------------|-----------------|
D|-2-2-0-2---0-2---|-----------------|
A|---↓-------↓-----|-2-2-0-2---0-2---|
E|---↓-------↓-----|---↓-------↓-----|
    C                       G
And I don't think that I'll see her again, 

e|------------------|----------------|
B|------------------|-1-1-0-1---0-1—-|
G|-2-0-2-0-2---0-2--|----------------|
D|-------------↓----|----------------|
A|-------------↓----|----------------|
E|-------------↓----|----------------|
       Am                           F
But we shared a moment that will last till the end. 

You're beautiful. You're beautiful. 
You're beautiful, it's true. 

e|------------------------------|
B|------------------------------|
G|------------------------------|
D|------------------------------|
A|---------------------3--2--0--|
E|------------------------------|
I saw your face in a crowded place, 
And I don't know what to do, 
'Cause I'll never be with you.

e|----------|------------|-------------|
B|--------1—|----------1-|----------1—-|
G|--------0-|----------0-|----------0--|

F     C      F     C      F     C      G
La la la la, la la la la, la la la la, la

 

F            G   C  
You're beautiful. You're beautiful. 
F            G          C
You're beautiful, it's true.

e|-------------------------------0---0---0--|
B|-------------------------------1---1---1--|
G|-------------------------------0---0---2--|
D|-------------------------------2---2---2--|
A|-------------------------------3---2---0--|
E|------------------------------------------|
       F	     G	       C     C/B  Am
There must be an angel with a smile on her face, 

(Kunting Blis lng d2 ung kanta lng, pro yung timing sa pagstrum ganun pa rin)
e|-------------0--------------0------------0--|----0---0---0--|
B|-------------1--------------1------------1--|----1---1---1--|
G|-------------0--------------0------------2--|----0---0---2--|
D|-------------2--------------2------------2--|----2---2---2--|
A|-------------3--------------2------------0--|----3---2---0--|
E|--------------------------------------------|---------------|
	  C	   C/B	     Am	C - C/B - Am
When she thought up that I should be with you. 
           F       G         Am
But it's time to face the truth, 
        F    G        C
I will never be with you.


(Pakinggan nyo n lng yung song pra sa timing… MAdali lng naman eto!!! Nasa inyo n lng
yung pagtatyaga kung gusto nyo nga matututo...)

For Comments and Suggestions:
Email me, or just rearrange...

Joeffrey Sevilla
Email: Joeallives@yahoo.com