James Blunt - So Long Jimmy Chords & Tabs

 

So Long Jimmy Chords & Tabs

James Blunt Chords & Tabs

Version: 2 Type: Tab

So Long Jimmy Tab

   
| /  slide up
| \  slide down
| h  hammer-on
| p  pull-off

All intro and verse chords after the hammer-ons are upstrokes.
Deaden the first in the pair and allow the second one to ring.

Intro- 
 
   Am
e----------------|
B------1------1--|
G------2------2--|
D--0h2-2--0h2-2--| x8 
A----------------|
E----------------|

   Am                                   C
e----------------|-------------------|----------------|-----------------|
B------1------1--|------1------1-----|-------------1--|-------------1---|
G------2------2--|------2------2-----|------0------0--|------0------0---|
D--0h2-2--0h2-2--|--0h2-2--0h2-2-----|------2------2--|------2------2---| 
A----------------|----------------0-2|--0h3-3--0h3-3--|--0h3-3--0h3-3--2|
E----------------|-------------------|----------------|-----------------|
 
   F                                 E   
e----------------|----------------|----------------|-------------6--6--|
B------1------1--|------1------1--|----------------|-------------6--6--|
G--0h2-2--0h2-2--|--0h2-2--0h2-2--|------0------0--|------0------7--7--|
D-------------3--|-------------3--|--0h2-2--0h2-2--|--0h2-2--0h2/8--8--|
A----------------|----------------|----------------|-------------8--8--|
E----------------|----------------|----------------|-------------6--6--|

Verse-

   Am                                   C
 I just can't believe that it's over  We were chilling out on the sofa
e----------------|-------------------|----------------|-----------------|
B------1------1--|------1------1-----|-------------1--|-------------1---|
G------2------2--|------2------2-----|------0------0--|------0------0---|
D--0h2-2--0h2-2--|--0h2-2--0h2-2-----|------2------2--|------2------2---| 
A----------------|----------------0-2|--0h3-3--0h3-3--|--0h3-3--0h3-3--2|
E----------------|-------------------|----------------|-----------------|
 
   F                                 E   
 Digging how the guitar goes       Did you lick that line yourself
 In a song that no one knows       Formed in the voodoo magic hell
e----------------|----------------|----------------|-------------6--6--|
B------1------1--|------1------1--|----------------|-------------6--6--|
G--0h2-2--0h2-2--|--0h2-2--0h2-2--|------0------0--|------0------7--7--|
D-------------3--|-------------3--|--0h2-2--0h2-2--|--0h2-2--0h2/8--8--|
A----------------|----------------|----------------|-------------8--8--|
E----------------|----------------|----------------|-------------6--6--|

   Am                                C
 Does everyone have a different take 
 Do you seem real but I seem fake  Does everyone get hypnotized by your fire
e----------------|----------------|----------------|----------------|
B------1------1--|------1------1--|-------------1--|-------------1--|
G------2------2--|------2------2--|------0------0--|------0------0--|
D--0h2-2--0h2-2--|--0h2-2--0h2-2--|------2------2--|------2------2--| 
A----------------|----------------|--0h3-3--0h3-3--|--0h3-3--0h3-3--|
E----------------|----------------|----------------|----------------|

Chorus-

C               Em
So long, Jimmy, so long.
           Am            C
Though you only stayed a moment,
       F
We all know that you're the one. Singing,
C               Em
So long, Jimmy, so long.
           Am           C
Sure we're glad for the experience,
D
We miss you now your gone.
           F
We're just swimming in your soul 'cause,
G
We all wish we wrote this song.
          
Life goes on.

Bridge- 

   Am
e----------------|----------------|----------------|----------------|
B------1------1--|------1------1--|------1------1--|------1------1--|
G------2------2--|------2------2--|------2------2--|------2------2--|
D--0h2-2--0h2-2--|--0h2-2--0h2-2--|--0h2-2--0h2-2--|--0h2-2--0h2-2--|
A----------------|----------------|----------------|----------------|
E----------------|----------------|----------------|----------------|
[ Tab from: http://www.guitartabs.cc/tabs/j/james_blunt/so_long_jimmy_tab_ver_2.html ]
e-------------|
B------1/3-1--|
G-------------|
D--0h2--------|
A-------------|
E-------------|

Verse-

   Am                                   C
 Im just so relieved that its over    We were hanging out going nowhere
e----------------|-------------------|----------------|-----------------|
B------1------1--|------1------1-----|-------------1--|-------------1---|
G------2------2--|------2------2-----|------0------0--|------0------0---|
D--0h2-2--0h2-2--|--0h2-2--0h2-2-----|------2------2--|------2------2---| 
A----------------|----------------0-2|--0h3-3--0h3-3--|--0h3-3--0h3-3--2|
E----------------|-------------------|----------------|-----------------|
 
   F                                 E   
 Digging how the guitar goes       Did you burn that bridge yourself
 In a song that no one knows       Formed in the voodoo magic hell
e----------------|----------------|----------------|-------------6--6--|
B------1------1--|------1------1--|----------------|-------------6--6--|
G--0h2-2--0h2-2--|--0h2-2--0h2-2--|------0------0--|------0------7--7--|
D-------------3--|-------------3--|--0h2-2--0h2-2--|--0h2-2--0h2/8--8--|
A----------------|----------------|----------------|-------------8--8--|
E----------------|----------------|----------------|-------------6--6--|

   Am                                C
 Does everyone have a different take
 Are you just cool & im just baked Does everyone get mesmorized by your fire
e----------------|----------------|----------------|----------------|
B------1------1--|------1------1--|-------------1--|-------------1--|
G------2------2--|------2------2--|------0------0--|------0------0--|
D--0h2-2--0h2-2--|--0h2-2--0h2-2--|------2------2--|------2------2--| 
A----------------|----------------|--0h3-3--0h3-3--|--0h3-3--0h3-3--|
E----------------|----------------|----------------|----------------|

Chorus-

C               Em
So long, Jimmy, so long.
           Am            C
Though you only stayed a moment,
       F
We all know that you're the one. Singing,
C               Em
So long, Jimmy, so long.
           Am           C
Sure we're glad for the experience,
D
We miss you now your gone.
           F
We're just swimming in your soul 'cause,
G
We all wish we wrote this song.
          
Life goes on.

Bit before the solo under the piano-

   Am
e----------------|
B------1------1--|
G------2------2--|
D--0h2-2--0h2-2--| x12 
A----------------|
E----------------|

Solo

   Am
e-------------------------------------------|
B-------------------------------------------|
G-------------------------------------------|
D--5/7-7-7\5--5/7-7-7\5--5/7-7\5--5/7--7\5--|  
A-------------------------------------------|
E-------------------------------------------|

e-------------------------------------------|
B-------------------------------------------|
G-------------------------------------------|
D--5/7--7\5--5/7-7-7\5--5/7-7\5--5/7-7-7\5--|  
A-------------------------------------------|
E-------------------------------------------|

e------------------------------------------|
B------------------------------------------|
G------------------------------------------|
D--5/7--7\5--5/7-7-7\5--5/7-7\5--5/7--7\5--|  
A------------------------------------------|
E------------------------------------------|

e-------------------------------------------|
B-------------------------------------------|
G-------------------------------------------|
D--5/7--7\5--5/7-7-7\5--5/7-7\5--5/7-7-7\5--|  
A-------------------------------------------|
E-------------------------------------------|
   Am
e----------------|---------------------0--------|
B------1------1--|------1------1-1-1p0---0-1----|
G------2------2--|------2------2-2-2---------0-2|
D--0h2-2--0h2-2--|--0h2-2--0h2-2-2-2------------|
A----------------|------------------------------|
E----------------|------------------------------|

Outro-

   Am
e----------------|
B------1------1--|
G------2------2--|
D--0h2-2--0h2-2--| x8 
A----------------|
E----------------|