James Blunt - Cry Chords & Tabs

 

Cry Chords & Tabs

James Blunt Chords & Tabs

Version: 2 Type: Tab

Cry Tab

|-----------------------------------------------------------|
|-----------------------------------------------------------|
|-----------------------------------------------------------|
|----9-7-9----9-7-9----5-4-5--5/7------9-7-9---7-5-7---7-5-7|
|-7---------5--------3------------5--7-------7-------7------|
|-----------------------------------------------------------|

|------------------------------|
|------------------------------|
|------------------------------|
|--7/9-------4----5---7---5----|
|-------5----5----5---5---7----|
|------------------------------|

[ Tab from: http://www.guitartabs.cc/tabs/j/james_blunt/cry_tab_ver_2.html ]