Jamelia - Thank You Chords & Tabs

 

Thank You Chords & Tabs

Jamelia Chords & Tabs

Version: 1 Type: Tab

Thank You Tab

   
Title: Thank You
Artist: Jamelia
Album: Jamelia

Instrument: 6 String Guitar

Tabbed by: Carl Harrison (carl@harrisoncarl.wanadoo.co.uk)

Notes:
preferably finger picked using M and A fingers

Verse 
(w/short delay) 
Dmaj7 D               Dmaj7 D
E |-------------------|-------------------||
B |---7-7-7-7-7-7-7-7-|---7-7-7-7-7-7-7-7-||
G |-6/7-7-7-7-7-7-7-7-|-6/7-7-7-7-7-7-7-7-||
D |-------------------|-------------------||
A |-------------------|-------------------||
E |-------------------|-------------------||
[ Tab from: http://www.guitartabs.cc/tabs/j/jamelia/thank_you_tab.html ]
Pre-Chorus 
    Db/D             Db/D
E |-----------------|-----------------||
B |-5-5-5-5-5-5-5-5-|-5-5-5-5-5-5-5-5-||
G |-6-6-6-6-6-6-6-6-|-6-6-6-6-6-6-6-6-||
D |-----------------|-----------------||
A |-----------------|-----------------||
E |-----------------|-----------------||

Chorus 
    D                 G
E |-----------------|-----------------||
B |-7-7-7-7-7-7-7-7-|-7-7-7-7-7-7-7-7-||
G |-7-7-7-7-7-7-7-7-|-0-0-0-0-0-0-0-0-||
D |-0-0-0-0-0-0-0-0-|-0-0-0-0-0-0-0-0-||
A |-----------------|-----------------||
E |-----------------|-----------------|| 

Here are the chords: 
  D      Dmaj7    G      Db/D
--0---  --0---  --00--  --0---
---2-2  ---222  -2----  ---2-2 
----3-  ------  3---33  ----3-
------  ------  ------  -4----