Jam - When Youre Young Chords & Tabs

 

When Youre Young Chords & Tabs

Jam Chords & Tabs

Version: 2 Type: Tab 0 ratings
1 star 2 stars 3 stars 4 stars 5 stars
comments

When Youre Young Tab

   
----------------------------------PLEASE NOTE---------------------------------#
#This file is the author's own work and represents their interpretation of the #
#song. You may only use this file for private study, scholarship, or research. #
#------------------------------------------------------------------------------##
From news.unomaha.edu!crcnis1.unl.edu!wupost!darwin.sura.net!cs.ucf.edu!schnitzi Wed Mar 31 23:10:08 PST 1993

Sender: news@cs.ucf.edu (News system)
Organization: University of Central Florida
Distribution: alt,rec
Date: Wed, 31 Mar 1993 23:39:13 GMT
Lines: 178


If you see this and appreciate it, please drop me a line and
let me know.  I'd hate for it to fall on deaf ears.

-------

Paul Weller chord progressions are usually quite odd and difficult
to figure out -- he doesn't seem to follow any rules, yet somehow
manages to pull it off.  This song is no exception.


WHEN YOU'RE YOUNG
By the Jam
(initially released only as a single, now available on Snap! et. al.)

INTRO

  Guitar:
          A   F#m
|---------5----2--2--2---|
|---------5----2--2--2---|
|---------6----2--2--2---|
|---------7----4--4--4---|
|---------7----4--4--4---|
|---------5----2--2--2---|
|                        |
|                        |
| Bass:                  |
|------------------------|
|------------------------|
|------------------------|
|-0-2-0-5-5--5-2--2--2---|

[Three times, then]
[ Tab from: http://www.guitartabs.cc/tabs/j/jam/when_youre_young_tab_ver_2.html ]
  Guitar:
     DG   E      E
|----2----------3----------0----------0-------------------|
|----3----------0----------0----------0-------------------|
|----2----------0----------1----------1-------------------|
|----0----------0----------2----------2-------------------|
|---------------2----------2----------2-------------------|
|---------------3----------0----------0-------------------|
|                                                         |
|                                                         |
| Bass:                                                   |
|-----------------7---7------4---4----4---4---------------|
|------7---7----5---5---5--2---2---2----2---2-------------|
|----5---5---5--------------------------------------------|
|---------------------------------------------------------|




A                       E
|----------0-----0-----0-----0-----------------------------|
|----------------------------------0-----0-----0-----0-----|
|-------2-----2-----2-----2--------------------------------|
|-------------------------------2-----2-----2-----2--------|
|----------------------------------------------------------|
|----------------------------------------------------------|



Bass (repeats through the 'quiet' middle part):
|-----------------------------|
|-----------------------------|
|-----------------------------|
|--5--5---5--5---2--2---0--0--|

You're feeling so bright you can't be stopped when you're young

  Guitar:
|-------------------------------------------|
|-------------------------------------------|
|-----------2---2-2-2-2-2-------------------|
|--------2----------------------0--1--2-----|
|--0--4--------------------0--4-------------|
|-------------------------------------------|
   ^Guitar 1    ^Guitar 2  ^Guitar 1

Used to fall in love with everyone

[Repeat guitar riff from above]

Any guitar and any bass drum

|----------------------------------------------|
|----------------------------------------------|
|----2---2---2----------2----------2-----------|
|------4---4---4-2-4------4-2-4------4-2-4-----|
|--0------------------0----------0-------------|
|----------------------------------------------|

[Repeat 3 times:]
|-----5-------4-------2---------5-------|
|---7---7---5---5---3---3-----5---------|
|-7-------6-------4---------6-----------|
|-------------------------7-------------|
|---------------------------------------|
|---------------------------------------|

|-----5-------4-------2----7--7-7--7--7-7----|
|---7---7---5---5---3---3--9--9-9--9--9-9----|
|-7-------6-------4--------9--9-9--9--9-9----|
|--------------------------9--9-9--9--9-9----|
|--------------------------7--7-7--7--7-7----|
|--------------------------------------------|

A F#m (repeat ad lib to fade)


-------------
[*] 50 quatloos to the first person who tells me what
this line really says


Mark Schnitzius
schnitzi@eola.cs.ucf.edu
University of Central Florida
Comments