Jam - When Youre Young Chords & Tabs

 

When Youre Young Chords & Tabs

Jam Chords & Tabs

Version: 2 Type: Bass Tab 0 ratings
1 star 2 stars 3 stars 4 stars 5 stars
comments

When Youre Young Bass Tab

"When You´re Young" by The Jam from SNAP!
W+M: Weller
From: Mark Schnitzius

INTRO| Bass:
|------------------------|
|------------------------|
|------------------------|
|-0-2-0-5-5--5-2--2--2---|
[Three times, then]| 
[ Tab from: http://www.guitartabs.cc/tabs/j/jam/when_youre_young_btab_ver_2.html ]
Bass:
|-----------------7---7------4---4----4---4---------------|
|------7---7----5---5---5--2---2---2----2---2-------------|
|----5---5---5--------------------------------------------|
|---------------------------------------------------------|

Bass (repeats through the 'quiet' middle part):
|-----------------------------|
|-----------------------------|
|-----------------------------|
|--5--5---5--5---2--2---0--0--|
You're feeling so bright you can't be stopped when you're young...

not all of it...
Comments