Jam - Town Called Malice Chords & Tabs

 

Town Called Malice Chords & Tabs

Jam Chords & Tabs

Version: 1 Type: Tab 0 ratings
1 star 2 stars 3 stars 4 stars 5 stars
comments

Town Called Malice Tab

this is my first ever tab be nice

chorus:

-10-10-10-10-10-10-10-10---|
-10-10-10-10-10-10-10-10---|
-10-10-10-10-10-10-10-10---|           x4
-11-11-11-11-11-12-11-11---|
---------------------------|
---------------------------|

verse:

-9-9-9-9-9-9-9-9-9-9-9--7-7-7-7-7-7-7-7-----------|
10-10-10-10-10-10-10-10-8-8-8-8-8-8-8-8-----------|          x2
11-11-11-11-11-11-11-11-9-9-9-9-9-9-9-9-----------|
15-15-15-15-15-15-15-15--9-9-9-9-9-9-9-9----------|
12-12-12-12-12-12-12-12-10-10-10-10-10-10---------|
12-12-12-12-12-12-12-12-11-11-11-11-11-11---------|
[ Tab from: http://www.guitartabs.cc/tabs/j/jam/town_called_malice_tab.html ]
leading up to the chorus:

-----------------------------------------|
-----------------------------------------|
-----------------------------------------|
-----------------------------------------|
-0-0-2-2-2-0-0-2-2-2-0-0-0-0-2-----------|
-----------------------------------------|

bass:

------------------------------------------|
------------------------------------------|
------------------------------------------|
------------------------------------------|
-5-5-5-----5-5-5--------------------------|
-------4-6-------4-6----------------------|


finding up the bass tab vote well!
Comments