Jam - Thats Entertainment Chords & Tabs

 

Thats Entertainment Chords & Tabs

Jam Chords & Tabs

Version: 3 Type: Tab 0 ratings
1 star 2 stars 3 stars 4 stars 5 stars
comments

Thats Entertainment Tab

this is my dads favorite band and their
highly successful hit: thats entertainment

intro/verse(all of them)
|-33--3-3-3-3-3-3--3-3-3-3-3-3-3-3-3-|      
|-33--3-3-3-3-3-3--3-3-3-3-3-3-3-3-0-|
|-00--0-0-0-0-0-0--0-0-0-0-0-0-0-0-0-|
|-00--0-0-0-0-0-0--2-2-2-2-2-2-2-2-0-|X2
|-22--2-2-2-2-2-0--2-2-2-2-2-2-2-2-0-|
|-33--3-3-3-3-3-0--0-0-0-0-0-0-0-0-0-|
[ Tab from: http://www.guitartabs.cc/tabs/j/jam/thats_entertainment_tab_ver_3.html ]
chorus
|-0-0-0-0-0-0-0-0--1-1-1-1-1-1-1-1-0-|
|-1-1-1-1-1-1-1-0--1-1-1-1-1-1-1-1-0-|
|-2-2-2-2-2-2-2-0--2-2-2-2-2-2-2-2-0-|
|-2-2-2-2-2-2-2-0--3-3-3-3-3-3-3-3-0-|
|-0-0-0-0-0-0-0-0--3-3-3-3-3-3-3-3-0-|
|------------------------------------|

bridge(after chorus)going onto verse again
|-3-3-3-3-3-3--3-3-3-3-3-3-3-3-3-|      
|-3-3-3-3-3-3--3-3-3-3-3-3-3-3-0-|
|-0-0-0-0-0-0--0-0-0-0-0-0-0-0-0-|
|-0-0-0-0-0-0--2-2-2-2-2-2-2-2-0-|
|-2-2-2-2-2-0--2-2-2-2-2-2-2-2-0-|
|-3-3-3-3-3-0--0-0-0-0-0-0-0-0-0-|


this tab is by bigdavedude182 e-mail me at
punk10199@yahoo.co.uk


order
verse/intro
chorus
bridge
repeats 6 times
Comments