Jam - Thats Entertainment Chords & Tabs

 

Thats Entertainment Chords & Tabs

Jam Chords & Tabs

Version: 2 Type: Bass Tab 0 ratings
1 star 2 stars 3 stars 4 stars 5 stars
comments

Thats Entertainment Bass Tab

   
-------------------------------------------------------------------------------
			     THATS ENTERTAINMENT - the jam
-------------------------------------------------------------------------------

Tabbed By : thebassmaster
e-mail: da_evil_fish@hotmail.com

Tuning: standard

INTRO

G|---------------------------------------------------------------------------|
D|----WAIT for guitar to play the first two chords then----------------------|
A|----after the third beatplay---------------------------------------------|
E|----------------------------------------------------------------3-3-1------|

G|------------------------------|
D|------------------------------|
A|-1--1--1--1-3-----------------|  x2
E|--------------3-3-3-3--3-3-1--|
[ Tab from: http://www.guitartabs.cc/tabs/j/jam/thats_entertainment_btab_ver_2.html ]
G|---------------------------------------|
D|---------------------------------------|
A|-3--3--3--3-3--------------------------|
E|--------------4-4-4-4--4--4--4---------|

G|------------------------------|
D|------------------------------|
A|-1--1--1--1-3-----------------|  
E|--------------3-3-3-3--3-3-1--|

1st Verse
G|------------------------------|
D|------------------------------|
A|-1--1--1--1-3-----------------|  
E|--------------3-3-3-3--3-3-1--|

chorus

G|---------------------------------------|
D|---------------------------------------|
A|-3--3--3--3-3--------------------------|
E|--------------4-4-4-4--4--4--4---------|

2nd and every verse after

G|---------------------------|
D|------0h3 0----------------|
A|-1--3-------3--------------|
E|---------------3-3-3-3-----|

and thats basically it. enjoy :)


| /  slide up
| \  slide down
| h  hammer-on
| p  pull-off
| ~  vibrato
| +  harmonic
| x  Mute note
Comments