Jam - See Saw Chords & Tabs

 

See Saw Chords & Tabs

Jam Chords & Tabs

Version: 1 Type: Tab 0 ratings
1 star 2 stars 3 stars 4 stars 5 stars
comments

See Saw Tab

   
#----------------------------------PLEASE NOTE---------------------------------#
#This file is the author's own work and represents their interpretation of the #
#song. You may only use this file for private study, scholarship, or research. #
#------------------------------------------------------------------------------#


SEE-SAW by THE JAM

Written by Paul Weller

B-side to 'The Eton Rifles'
 and on Disc 2 of 'Direction, Reaction, Creation' box set

Chords used:

D5:    xx023x and x577xx
D:     x5777x 
A:     577655
Bm:    799777
Asus4: 5x7755
C#5:   9-11-11-xxx
F#5:   x-9-11-11-xxx
B5:    799xxx
E5:    x799xx
B:     799877
C:     8-10-10-9-8-8

Fig.1:

  D5  
--------------|--------------|--
--3--------3--|-----3----3-3-|--
--2--2--2--2--|--2--2--2-2-2-|-- (x2) 
--0--0--0--0--|--0--0--0-0-0-|--       
--------------|--------------|--
--------------|--------------|--
[ Tab from: http://www.guitartabs.cc/tabs/j/jam/see_saw_tab.html ]
Fig.2:  (w/fig.1 underneath)
  D        A     Bm       D     Bm       D     Asus4    A     D  A 
--------------|--------------|--------------|--------------|-----5--------|--
--7--7--7--5--|--7--7--7--7--|--7--7--7--7--|-----5-----5--|--7--5--------|--
--7--7--7--6--|--7--7--7--7--|--7--7--7--7--|-----7-----6--|--7--6--------|--
--7--7--7--7--|--9--9--9--7--|--9--9--9--7--|-----7-----7--|--7--7--------|--
--------------|--------------|--------------|--------------|--5--7--------|--
--------------|--------------|--------------|--------------|-----5--------|--

Fig.3:  (w/fig.2 underneath)  
 D   A          Bm D           Bm D            Asus4 A        D  A
-10-----------|--------------|--------------|--------------|-----5--------|--
----10--------|-12-----------|-12-----------|--------------|--7--5--------|--
--------------|----11--------|----11--9-----|--------------|--7--6--------|--
--------------|--------------|-----------11-|-12-11--------|--7--7--------|--
--------------|--------------|--------------|--------------|--5--7--------|--
--------------|--------------|--------------|--------------|-----5--------|--

  Bm             A              G              F#m
--------------|--------------|--------------|--------------|--
--------7-----|--------5-----|--------3-----|--------2-----|--
-----7-----7--|-----6-----6--|-----4-----4--|-----2-----2--|--
--9-----------|--7-----------|--5-----------|--4-----------|--
--------------|--------------|--------------|--------------|--
--------------|--------------|--------------|--------------|--
Comments