Jam - Pop Art Poem Chords & Tabs

 

Pop Art Poem Chords & Tabs

Jam Chords & Tabs

Version: 1 Type: Bass Tab 0 ratings
1 star 2 stars 3 stars 4 stars 5 stars
comments

Pop Art Poem Bass Tab

#----------------------------------PLEASE NOTE---------------------------------#
#This file is the author's own work and represents their interpretation of the #
#song. You may only use this file for private study, scholarship, or research. #
#------------------------------------------------------------------------------#


POP ART POEM
(Paul Weller)
[ Tab from: http://www.guitartabs.cc/tabs/j/jam/pop_art_poem_btab.html ]
--------------------------               
--7--7--6--6--------------
--------------5--5--5--5-- (x2) then...
--------------------------

-----------------------------
--------------------------2-- 
--5--5--4--4--2--2--2--2-----
-----------------------------

This is the MAIN RIFF repeated throughout the whole song, 
listen to it to get the idea.


(then repeat the first part of the riff x4 then:)

-------
-------
--5\0--
-------

And there you go, hope you understand!
Comments