Jam - Monday Chords & Tabs

 

Monday Chords & Tabs

Jam Chords & Tabs

Version: 1 Type: Chords 0 ratings
1 star 2 stars 3 stars 4 stars 5 stars
comments

Monday Chords

   
#----------------------------------PLEASE NOTE---------------------------------#
#This file is the author's own work and represents their interpretation of the #
#song. You may only use this file for private study, scholarship, or research. #
#------------------------------------------------------------------------------#
heliocentric@breathe.com
Monday 30th July 2001

MONDAY by THE JAM

Written by Paul Weller

From 'Sound Affects'

Chords used:

C:   x32010
C/B: x2x010
Am7: x02010
C/E: xx2010
Dm:  xx0231
G:   320033
Em7: 022033
A:   x02220
F#m: 244222
Bm:  799777
Em:  x79987
F:   133211
Em*: 022000

The bass for the intro arr. for guitar:

----------------------------------------
-------------------------------------8--
--------7----------------7--------7-----
-----7-----7--5-------7-----7--5--------
--5----------------5--------------------
----------------------------------------

(n.c.) play the bit above once

(n.c.)
Oh baby I'm dreaming of Monday...


  G 
-----------------------
-----------------------
-----------------------
--------------0--3--5--
-----0--2--3-----------
--3--------------------


 G 
-----------------------
-----------------------
-----------------------
--------------0--3--5--
-----0--2--3-----------
--3--------------------



 G 
-----------------------
-----------------------
-----------------------
--------------0--3--5--
-----0--2--3-----------
--3--------------------




====================================================================================================
[ Tab from: http://www.guitartabs.cc/tabs/j/jam/monday_crd.html ]
heliocentric@breathe.com
27th December 2000, 9.09pm

THE MODERN WORLD
(Paul Weller)

Chords used:

A:  577655    C7:  x35353    Bm:  799777
D:  x5777x    Am:  577555    D7:  x57575
C:  x3555x    B5:  x244xx
G:  355433    D:   xx0232
F:  133211    E:   022100

====================================================================================================


Sender: news@cs.ucf.edu (News system)
Organization: University of Central Florida
Distribution: alt
Date: Tue, 15 Sep 1992 00:15:05 GMT
Lines: 58

THE JAM
Man in the Corner Shop

Intro

 D              Bm       G
-2--0--------------------------3--2--0-----
-3-----3--2--0--------0--2--3--0--------3--
-2-----------------4-----------0-----------
-0--------------4--------------0-----------
-------------------------------------------
-------------------------------------------

    A
----0-----------0--
-0--2--0--2--3-----  (repeats)
----2--------------
----2--------------
-------------------
-------------------

====================================================================================================


15th September 2000, 12.34pm
Heliocentric@breathe.com
Shaun Hand, Birmingham

LONDON TRAFFIC
(Bruce Foxton)

From the LP 'This Is The Modern World'

This is the main riff of the song:

  A          
-----0-----0--0--0--0-----0-----0--0--0--0--|
-----2-----2--3--2--0-----2-----2--3--2--0--|
--2--2--2--2--2--2--2--2--2--2--2--2--2--2--|
--2-----2--------------2-----2--------------|
--0-----0--------------0-----0--------------|
--------------------------------------------|
Comments