Jam - Modern World Chords & Tabs

 

Modern World Chords & Tabs

Jam Chords & Tabs

Version: 1 Type: Bass Tab

Modern World Bass Tab

   
Artist: The Jam
Song: The Modern World
Album: This Is The Modern World (Track 1)
Length: 2:31
Year: 1977

Tuning: G D A E

Intro:
   This is the modern world
   This is the modern world

   G|---------|---------|---------|---------|
   D|---------|---------|---------|---------|
   A|---------|---------|---------|---------|
   E|-3-3-3---|-3-3-3---|-3-3-3---|-3-3-3---|

Verse 1:

   G|-5--5----|---------|-5--5----|---------|
   D|---------|-5--5----|---------|--3\5--5-|
   A|---------|---------|---------|---------|
   E|---------|---------|---------|---------|
         What.........I am?
      
   G|-5--5----|---------|-5--5----|-5--5----|
   D|---------|-5--5----|---------|---------|
   A|---------|---------|---------|---------|
   E|---------|---------|---------|---------|
         You..........world

   G|---------|---------|---------|---------|
   D|-7--7----|-4--4----|-7--7----|-4--4----|
   A|---------|---------|---------|---------|
   E|---------|---------|---------|---------|
         All........same     I've.......pain

   G|---------|---------|-7--7--7-|---------|
   D|-7--7----|-4--4----|---------|--3\5--5-|
   A|---------|---------|---------|---------|
   E|---------|---------|---------|---------|
         It's.........drive

Verse 2:

   G|-5--5----|---------|-5--5----|---------|
   D|---------|-5--5----|---------|--3\5--5-|
   A|---------|---------|---------|---------|
   E|---------|---------|---------|---------|
         I've..........know
      
   G|-5--5----|---------|-5--5----|-5--5----|
   D|---------|-5--5----|---------|---------|
   A|---------|---------|---------|---------|
   E|---------|---------|---------|---------|
         Even..........sure

   G|---------|---------|---------|---------|
   D|-7--7----|-4--4----|-7--7----|-4--4----|
   A|---------|---------|---------|---------|
   E|---------|---------|---------|---------|
         That........top     And.........map

   G|---------|---------|-7--7--7-|---------|
   D|-7--7----|-4--4----|---------|--3\5--5-|
   A|---------|---------|---------|---------|
   E|---------|---------|---------|---------|
         The........nothing

Chorus 2:

   G|-7-------|-9-------|---------|---------|
   D|---------|---------|-7--7----|--8-5--7-|
   A|---------|---------|---------|---------|
   E|---------|---------|---------|---------|
         This................about

   G|-7-------|-9-------|---------|---------|
   D|---------|---------|-7--7----|-8-------|
   A|---------|---------|---------|---------|
   E|---------|---------|---------|---------|
         This..........................wrong

Interlude 1:

   G|---------|---------|---------|---------|
   D|---------|---------|---------|---------|   x2
   A|---------|---------|---------|---------|
   E|-3-3-3---|-3-3-3---|-3-3-3---|-3-3-3---|

Solo:

   G|-------------|-------------|-------------|-------------|
   D|-7---7-5h4h5-|-7---7-5h4h5-|-7---7-5h4h5-|-7---7-5h4h5-|   x2
   A|-------------|-------------|-------------|-------------|
   E|-------------|-------------|-------------|-------------|
[ Tab from: http://www.guitartabs.cc/tabs/j/jam/modern_world_btab.html ]
   I am not too sure if this is right, but this is what I think it is.

   G|---------|---------|---------|---------|
   D|-6-6-6---|-6-6-6---|-6-6-6---|-6-6-6---|
   A|---------|---------|---------|---------|
   E|---------|---------|---------|---------|

Verse 3:

   G|-7--7----|---------|-7--7----|---------|
   D|---------|-7--7----|---------|--5\7--7-|
   A|---------|---------|---------|---------|
   E|---------|---------|---------|---------|
         Say...........care

   G|-7--7----|---------|-7--7----|-7--7----|
   D|---------|-7--7----|---------|---------|
   A|---------|---------|---------|---------|
   E|---------|---------|---------|---------|
         I..............too

   G|---------|---------|---------|---------|
   D|-8--8----|-5--5----|-8--8----|-5--5----|
   A|---------|---------|---------|---------|
   E|---------|---------|---------|---------|
         It's....preview     Don't.......you

   G|---------|---------|-9--9--9-|---------|
   D|-8--8----|-5--5----|---------|--5\7--7-|
   A|---------|---------|---------|---------|
   E|---------|---------|---------|---------|
         I........review

Chorus 2:

   G|-7-------|-9-------|---------|---------|
   D|---------|---------|-7--7----|--8-5--7-|
   A|---------|---------|---------|---------|
   E|---------|---------|---------|---------|
         This................about

   G|-7-------|-9-------|---------|---------|
   D|---------|---------|-7--7----|-8-------|
   A|---------|---------|---------|---------|
   E|---------|---------|---------|---------|
         This..........................wrong

Interlude 2:

   G|---------|---------|-7-7-7-7-|-9-9-9-9-|
   D|-7-7-7-7-|-7-7-7-7-|---------|---------|
   A|---------|---------|---------|---------|
   E|---------|---------|---------|---------|

   G|---------|---------|   G|---------|---------|
   D|-7-7-7-7-|-8-8-8-8-|   D|---------|---------|   x2
   A|---------|---------|   A|---------|---------|
   E|---------|---------|   E|-3-3-3---|-3-3-3---|
......need.........wrong

Outro: (No Bass)
   This is the modern world
   This is the modern world

Lyrics:

   This is the modern world, this is the modern world

   What kind of fool do you think I am?
   You think I know nothing of the modern world
   All my life has been the same, I've learned to live by hate and pain
   It's my inspiration drive

   I've learned more than you'll ever know
   Even in school I felt quite sure
   That one day I would be on top, and I'd look down upon the map
   The teachers who said I'd be nothing

   This is the modern world that I've learned about
   This is the modern world, we don't need no one to tell us what's right or wrong

   Say what you like, 'cause I don't care
   I know where I am and going too
   It's somewhere I won't preview, don't have to explain myself to you
   I don't give two fucks about your review

   This is the modern world that I've learned about
   This is the modern world, we don't need no one to tell us what's right or wrong

   We don't need no one to tell us what's right or wrong

   This is the modern world, this is the modern world