Jam - Fly Chords & Tabs

 

Fly Chords & Tabs

Jam Chords & Tabs

Version: 1 Type: Tab 0 ratings
1 star 2 stars 3 stars 4 stars 5 stars
comments

Fly Tab

   
#----------------------------------PLEASE NOTE---------------------------------#
#This file is the author's own work and represents their interpretation of the #
#song. You may only use this file for private study, scholarship, or research. #
#------------------------------------------------------------------------------#

heliocentric@breathe.com
1st January 2001, 7.49pm

Thanks to Dodger for the chords.

FLY - THE JAM
(Paul Weller)

Chords used:

G/D:     xx0787
F#m/A:   xx7675
A/D:     x-x-0-9-10-9 and x-x-0-9-10-12
Asus2/D: x-x-0-9-10-7
Dsus2:   xx0230
A:       x02220
Amaj7:   x02120
A7:      x02020
A6:      x02222
Bsus4:   x2445x
B:       x2444x
D:       xx0232
Dmaj7:   xx0222
D6:      xx0202
E:       xx245x

Intro and verses:
  
  
-----7--7--7--7--|--7--5--9--12-|-----7--7--7--7--|--7--5--7/9--7---|-----7--7--7--7--|
-----8--8--8--8--|--8--7--10-10-|-----8--8--8--8--|--8--7--8/10-10--|-----8--8--8--8--|
-----7--7--7--7--|--7--6--9--9--|-----7--7--7--7--|--7--6--7/9--9---|-----7--7--7--7--|
--0--0--0--0--0--|--0--7--0--0--|--0--0--0--0--0--|--0--7--0-0--0---|--0--0--0--0--0--|
-----------------|--------------|-----------------|-----------------|-----------------|
-----------------|--------------|-----------------|-----------------|-----------------|

--7--5--9--12--|-----7--7--7--7--|--7--5--0--0--|--0--------0-----------|--0--------0-----------|
--8--7--10-10--|-----8--8--8--8--|--8--7--0--3--|-----3--------3--------|-----3--------3--------|
--7--6--9--9---|-----7--7--7--7--|--7--6--0--2--|--------2--------2-----|--------2--------2-----|
--0--7--0--0---|--0--0--0--0--0--|--0--7--0--0--|--------------------0--|--------------------0--|
---------------|-----------------|--------------|-----------------------|-----------------------|
---------------|-----------------|--------------|-----------------------|-----------------------|


Chorus:
[ Tab from: http://www.guitartabs.cc/tabs/j/jam/fly_tab.html ]
  A               Amaj7              A7                      A6
|----------------|------------------|-----------------------|----------------------------|     
|--------8^-5----|------------8^-5--|--------------8^-5-----|---------------8^-5---------| 
|----------------|------------------|-----------------------|----------------------------|     
|----------------|------------------|-----------------------|----------------------------|       
|----------------|------------------|-----------------------|----------------------------|       
|----------------|------------------|-----------------------|----------------------------|          Trust you love, be with me there, that's when I want you,  that's when I need you the  
   
   Bsus4               B                
|--------------7--|----------------7--|
|-----------7-----|-------------7-----|
|--------9--------|----------8--------|
|-----9-----------|-9-----9-----------|
|--9--------------|----9--------------|
|-----------------|-------------------|
   most.
   
(Instrumental chorus)

D Dmaj7 D6 Dmaj7 (x2)

E B A B (x2)

  D           Dmaj7  D6 Dmaj7               D         Dmaj7    D6 Dmaj7
--10----------9------|--5--7--9--5---|------10--------9--------|--5--7--9--5--|
---------------------|---------------|-------------------------|--------------|
---------------------|---------------|-------------------------|--------------|
---------------------|---------------|-------------------------|--------------|
---------------------|---------------|-------------------------|--------------|
---------------------|---------------|-------------------------|--------------|
---------------------|---------------|-------------------------|--------------|
  Love is all sorrow             still I'll meet you tomorrow

           E         B        A  B           E            B         A  B 
-----------12--------11--------|--7--9--11-7--|---12-----------11-------|--7--9--11-7--|
-------------------------------|--------------|-------------------------|--------------|
-------------------------------|--------------|-------------------------|--------------|
-------------------------------|--------------|-------------------------|--------------|
-------------------------------|--------------|-------------------------|--------------|
-------------------------------|--------------|-------------------------|--------------|
  And look forward to see you,             now I  can't be without you.


And I can't work out the end bit just yet...
`
Comments