Jam - Art School Chords & Tabs

 

Art School Chords & Tabs

Jam Chords & Tabs

Version: 1 Type: Tab 0 ratings
1 star 2 stars 3 stars 4 stars 5 stars
comments

Art School Tab

   
#----------------------------------PLEASE NOTE---------------------------------#
#This file is the author's own work and represents their interpretation of the #
#song. You may only use this file for private study, scholarship, or research. #
#------------------------------------------------------------------------------#

heliocentric@breathe.com

August 27th 2000, 22.11pm



ART SCHOOL by THE JAM

Written by Paul Weller




INTRO


  A  G  D  E

--5--3--2--0--
--5--3--3--0--
--6--4--2--1--
--7--5--0--2--
--7--5-----2--
--5--3-----0--

               One, two, three, four!



  A     D               E       G  E

--5--5--10--10--      --12--12--3--0
--5--5--10--10--      --12--12--3--0
--6--6--11--11-- (x4) --13--13--4--1
--7--7--12--12--      --14--14--5--2
----------------      ----------5--2
----------------      ----------3--0


                                ^

                                slightly bend all strings on the G chord



VERSE:


  A                 D              E     G  E

[ Tab from: http://www.guitartabs.cc/tabs/j/jam/art_school_tab.html ]
--5--5--------------------       --------3--0--
--5--5--------------7--7--       --9--9--3--0--
--6--6--------------7--7--       --9--9--4--1--
--7--7--------------7--7-- (x4)  --9--9--5--2--
--7--7--------------5--5--       --7--7--5--2--
--5--5--------------------       --------3--0--



  Anything that you wanna do...



Play the whole thing x2



CHORUS:




  Bm                  G

--2-------------------3--        
--3-------------------3--
--4-------------------4--
--4-------------------5-- (x4)   
----------------------5--        
----------------------3--        

  

  Do what you want if takes...



      D                          E

------10--10--10--10--         --12--12--12--12--
------10--10--10--10--         --12--12--12--12--
------11--11--11--11-- (x2)    --13--13--13--13-- (x2)
------12--12--12--12--         --14--14--14--14--
------12--12--12--12--         --14--14--14--14--
------10--10--10--10--         --12--12--12--15--

 

  The fools only laugh...     ...envy you




  G  E

--3--0--
--3--0--
--4--1--
--5--2--
--5--2--
--3--0--

        OI!

        

Play verse w/ad lib OI!'s






--5------3--2--0--0--
--5------3--3--0--2-- --2--     --0--
--6------4--2--1--2--   ^         ^
--7------5--0--2--2--   |         |
--7------5-----2--0--   |         |
--5------3-----0-----   |         |

                         (morse code f/back for 4 bars

    school.               each as the song fades out)
Comments