Jal - Yaqeen Chords & Tabs

 

Yaqeen Chords & Tabs

Jal Chords & Tabs

Version: 1 Type: Bass Tab 0 ratings
1 star 2 stars 3 stars 4 stars 5 stars
comments

Yaqeen Bass Tab

G|--------------------------------------------------------------------|
D|--------------------------------------------------------------------|
A|--------------------------------------------------------------------|
E|---10---------3-----------------5--------10-------------------------|
     Aaj dil dukha hai            tum yaad ayee

G|--------------------------------------------------------------------|
D|--------------------------------------------------------------------|
A|--------------------------------------------------------------------|
E|---10------3--------------------5-----------------10----------------|
     anjanay loog hain            apnay kahan dhond payain

G|--------------------------------------------------------------------|
D|--------------------------------------------------------------------|
A|--------------------------------------------------------------------|
E|---10---------0-----------------3------------------3--5--10---------|
     jagay hain soyee nahe        aiseehai meree yeh baychanee

G|--------------------------------------------------------------------|
D|--------------------------------------------------------------------|
A|--------------------------------------------------------------------|
E|---10---------------------------3----------------------3----5-10----|
     din bhee wohi raatien wohi   saansoun main saansain hain nahee

G|--------------------------------------------------------------------|
D|--------------------------------------------------------------------|
A|--------------------------------------------------------------------|
E|---5---10---5---10---3---3---5---10---------------------------------|
     hmm hmmmm hmmhmmm hmm hmm hmm hmm hmm hmm hmm

G|--------------------------------------------------------------------|
D|--------------------------------------------------------------------|
A|--------------------------------------------------------------------|
E|---10---------------------------3---------------3-----5-10----------|
     shamain abb dhalte nahe      aanchal jo tera simat jayee
[ Tab from: http://www.guitartabs.cc/tabs/j/jal/yaqeen_btab.html ]
G|--------------------------------------------------------------------|
D|--------------------------------------------------------------------|
A|--------------------------------------------------------------------|
E|---10---------------------------3------------------3--5-10----------|
     aap yahan hamesha rahain     duri rahay na hoon faaslay

                                                                  (2x)
G|--------------------------------------------------------------------|
D|--------------------------------------------------------------------|
A|--------------------------------------------------------------------|
E|---5---10---5---10---3---3---5---10---------------------------------|
     hmm hmmmm hmmhmmm hmm hmm hmm hmm hmm hmm hmm

G|--------------------------------------------------------------------|
D|--------------------------------------------------------------------|
A|--------------------------------------------------------------------|
E|---10---------0-----------------3------------------3--5--10---------|
     jagay hain soyee nahe        aiseehai meree yeh baychanee

G|--------------------------------------------------------------------|
D|--------------------------------------------------------------------|
A|--------------------------------------------------------------------|
E|---10---------------------------3----------------------3----5-10----|
     din bhee wohi raatien wohi   saansoun main saansain hain nahee

                                                                  (2x)
G|--------------------------------------------------------------------|
D|--------------------------------------------------------------------|
A|--------------------------------------------------------------------|
E|---5---10---5---10---3---3---5---10---------------------------------|
     hmm hmmmm hmmhmmm hmm hmm hmm hmm hmm hmm hmm

G|--------------------------------------------------------------------|
D|--------------------------------------------------------------------|
A|--------------------------------------------------------------------|
E|---10---------------------------3------3----5-10--------------------|
     abb agar tum milay too       itna yaqeen hai

G|--------------------------------------------------------------------|
D|--------------------------------------------------------------------|
A|--------------------------------------------------------------------|
E|---10---------------------------3-----3----5/10---------------------|
     hans dayen gay humto         roona nahe hai





Usman Khan (Mani).............Sekcmonks@Hotmail.com
Comments