Jal - Teri Yaad Chords & Tabs

 

Teri Yaad Chords & Tabs

Jal Chords & Tabs

Version: 2 Type: Tab 0 ratings
1 star 2 stars 3 stars 4 stars 5 stars
comments

Teri Yaad Tab

i m sure this 100% rite


e----9s14-14-14-10-10-12-10-9--9-10-9-7-5-4-2-2-4-5-12----|
b---------------------------------------------------------|
G---------------------------------------------------------|
D---------------------------------------------------------|
A---------------------------------------------------------|
E---------------------------------------------------------|

now with music rythm

[ Tab from: http://www.guitartabs.cc/tabs/j/jal/teri_yaad_tab_ver_2.html ]
e----9s14-14-14-10-10-12-10-9--9-10-9-7-5-4-2-2-4-5-12----|
b---------------------------------------------------------|
G---------------------------------------------------------|
D---------------------------------------------------------|
A---------------------------------------------------------|
E---------------------------------------------------------|

I m not sure about this one but check it out!
Now Play It Fast

e-----9-9-7-9--9-7-12-9-7-9------------------------------|
b--7-----------------------------------------------------|
G--------------------------------------------------------|
D--------------------------------------------------------|
A--------------------------------------------------------|
E--------------------------------------------------------|

repeat this....

Have Fun !!!
Comments