Jal - Rangon Mein Chords & Tabs

 

Rangon Mein Chords & Tabs

Jal Chords & Tabs

Version: 2 Type: Tab 0 ratings
1 star 2 stars 3 stars 4 stars 5 stars
comments

Rangon Mein Tab

Song....... Rangon mein.
Band....... Jal.
Tabbed by.. Subtain Pervaiz  ( Complicated ).
Tuning..... STandard.

Note : The following tabs are just to give an idea.The strumming
       Pattern is not and CAN NOT be given cause the guitarist 
       Shuffles it in between....
     


 < INTRO >

e|---------------------------------------------------------|
b|---------------------------------------------------------|
g|------0---4---------4---2--------0---2-------4-----2-----|
d|----4---4---------4---4---4----4---4---4-------4-----4---|
a|--2---------2-2-2--------------------------------------0-|
e|-----------------------------3-----------3-3-----3-------|

                                                    Kay rahain
e|---------------------------------------------------------|
b|---------------------------------------------------------|
g|----0---4-----------4---0---2--------0---2---0------0---4|
d|--4---4---4-------4---4---4---4----4---4---4------4---4--|
a|2-----------2-2-2----------------------------------------|
e|---------------------------------3------------3-3--------|
                                                       
  in rangon main    kay rahain in khawabon main
e|---x-----------x----------------x-----------x------------|
b|---x-----------x----------------x-----------x------------|
g|---4-----------4----------------x-----------x------------|
d|---4-----------4----------------5-----------5------------|
a|---2-----------2----------------5-----------5------------|
e|---x-----------x----------------3-----------3------------|

   KAy rahain in rangon main  
e|-------------x--------x----------x---x--------------|
b|-------------x--------x----------x---x--------------|
g|-------------x--------4----------x---x--------------|
d|-------------2--------4----------5---x--------------|
a|-------------2--------2----------5---x--------------|
e|-------------0--------x----------3---x--------------|

<----------------------------------------------------------->
<----------------------------------------------------------->

  < Music  >   
e|-x-x---x-x---|
b|-x-2---x-x---|
g|-4-4---x-4---|
d|-4-4---5-5---|
a|-2-2---5-5---|
e|-x-x---3-3---|

   RANGON MAIN,KHAWABON MAIN HUM SABHEE!
   NAINAN MAIN ,AKHIYAN MAIN Tum jo kabhee! 
e|-x-------------------------x----------|
b|-x-------------------------x----------|
g|-4-------------------------x----------|
d|-4-------------------------5----------|
a|-2-------------------------5----------|
e|-x-------------------------3----------|


e|-x-x-x---x--x--x---------x-x-x---x--x-|
b|-x-x-x---x--x--x---------x-x-x---x--x-|
g|-4-2-4---6--7--9---------4-2-4---6--7-|
d|-4-2-4---6--7--9---------4-2-4---6--7-|
a|-2-0-2---4--5--7---------2-0-2---4--5-|
e|-x-x-x---x--x--x---------x-x-x---x--x-|

<------------------------------------------------------------> 
<------------------------------------------------------------>

   RANGON MAIN,KHAWABON MAIN HUM SABHEE!
   NAINAN MAIN,AKHIYAN MAIN Tum jo kabhee!
e|-x-------------------------x----------|
b|-x-------------------------x----------|
g|-4-------------------------x----------|
d|-4-------------------------5----------|
a|-2-------------------------5----------|
e|-x-------------------------3----------|


e|-x-x-x---x--x--x----x----x-x-x---x--x-|
b|-x-x-x---x--x--x----x----x-x-x---x--x-|
g|-4-2-4---6--7--9----2----4-2-4---6--7-|
d|-4-2-4---6--7--9----2----4-2-4---6--7-|
a|-2-0-2---4--5--7----0----2-0-2---4--5-|
e|-x-x-x---x--x--x----x----x-x-x---x--x-|

<------------------------------------------------------------> 
<------------------------------------------------------------>

   ZINDAGEE ZARA  TUU JHOOM  LAY 
   APNAY GIRD ZARA TU GHOOM  LAY
e|-x--x-x--------------------x----------|
b|-x--x-x--------------------x----------|
g|-7--2-4--------------------x----------|
d|-7--2-4--------------------5----------|
a|-5--0-2--------------------5----------|
e|-x--x-x--------------------3----------|

   APNAY GIRD ZARA TU GHOOM  LAY
e|-x--x--x-------------------x----------|
b|-x--x--x-------------------x----------|
g|-x--2--4-------------------x----------|
d|-5--2--4-------------------5----------|
a|-5--0--2-------------------5----------|
e|-3--x--x-------------------3----------|

   BAANT LAY SAAREE          KHUSHIAAN 
   BHULA DAY SARAY           GHAM
e|-x---------x---------------x----------|
b|-x---------x---------------x----------|
g|-x---------x---------------x----------|
d|-2---------4---------------5----------|
a|-2---------4---------------5----------|
e|-0---------2---------------3----------|

<-------------------------------------------------------------->
<-------------------------------------------------------------->
[ Tab from: http://www.guitartabs.cc/tabs/j/jal/rangon_mein_tab_ver_2.html ]
   RANGON MAIN,KHAWABON MAIN HUM SABHEE!
   NAINAN MAIN,AKHIYAN MAIN Tum jo kabhee!
   Aaaaaaa                   Aaaaaa
   Aaaaaaa                   Aaaaaa
e|-x-------------------------x-x--------|
b|-x-------------------------x-x--------|
g|-4-------------------------x-4--------|
d|-4-------------------------5-5--------|
a|-2-------------------------5-5--------|
e|-x-------------------------3-3--------|


<-------------------------------------------------------------->
<-------------------------------------------------------------->

e|------------------------------------------------|
b|------------------------------------------------|
g|------------------------------------------------|
d|-2----------------------------------------------|
a|-2-5-----------------2-2------------------------|
e|-0-3---0-0-2-2-2-5-7----3-3-3-3-3-0-0-2-2-2-5-7-|

e|-----------------------------|
b|-----------------------------|
g|-----------------------------|
d|-----------------------------|
a|-2-2-------------------------|
e|-----3-3-3-3-3-0-0-2-2-2-5-7-|


   Hmmm  Hmmm  Hmmm Hmmm
   Hmmm  Hmmm  Hmmm Hmmm
   Hmmm  Hmmm  Hmmm Hmmm
   Hmmm  Hmmm  Hmmm Hmmm
e|-x-----x-----x----x-x-x-------|
b|-x-----x-----x----x-x-x-------|
g|-4-----x-----x----x-x-x-------|
d|-4-----5-----2----4-5-7-------|
a|-2-----5-----2----4-5-7-------|
e|-x-----3-----0----2-3-5-------|

<-------------------------------------------------------------->
<-------------------------------------------------------------->

   APNAY HATH ZARA TU UTHA   LAY
e|-x-----x-------------------x----------|
b|-x-----x-------------------x----------|
g|-x-----4-------------------x----------|
d|-7-----4-------------------5----------|
a|-7-----2-------------------5----------|
e|-5-----x-------------------3----------|

   MANG LAYE   AB  SAYE      DUA
e|-x----x--------------------x----------|
b|-x----x--------------------x----------|
g|-x----4--------------------x----------|
d|-5----4--------------------5----------|
a|-5----2--------------------5----------|
e|-3----x--------------------3----------|

   BAANT LAY SAAREE          KHUSHIAAN 
   BHULA DAY SARAY           GHAM
e|-x---------x---------------x----------|
b|-x---------x---------------x----------|
g|-x---------x---------------x----------|
d|-2---------4---------------5----------|
a|-2---------4---------------5----------|
e|-0---------2---------------3----------|

<-------------------------------------------------------------->
<-------------------------------------------------------------->


   RANGON MAIN,KHAWABON MAIN HUM SABHEE!
   NAINAN MAIN,AKHIYAN MAIN Tum jo kabhee!
e|-x-------------------------x----------|
b|-x-------------------------x----------|
g|-4-------------------------x----------|
d|-4-------------------------5----------|
a|-2-------------------------5----------|
e|-x-------------------------3----------|


e|-----------------------------x-x---x-x--x-x-|
b|-----------------------------x-x---x-x--x-x-|
g|-----------------------------x-x---x-x--x-x-|
d|-----------------------------5-5---7-7--9-9-|
a|-2-2-4-4-5-5-7-7-9-7-5-4-2-0-5-5---7-7--9-9-|
e|-----------------------------3-3---5-5--7-7-|

e|--x-x---x-x--x-x-|
b|--x-x---x-x--x-x-|
g|--x-x---x-x--x-x-|
d|--5-5---7-7--9-9-|
a|--5-5---7-7--9-9-|
e|--3-3---5-5--7-7-|


e|-----------------------------x-x---x-x--x-x-|
b|-----------------------------x-x---x-x--x-x-|
g|-----------------------------x-x---x-x--x-x-|
d|-----------------------------5-5---7-7--9-9-|
a|-2-2-4-4-5-5-7-7-9-7-5-4-2-0-5-5---7-7--9-9-|
e|-----------------------------3-3---5-5--7-7-|

          Kay rahain in rangon main 
e|--x-x---x-x--x-x-| |--x-----------|
b|--x-x---x-x--x-x-| |--x-----------|
g|--x-x---x-x--x-x-| |--4-----------|
d|--5-5---7-7--9-9-| |--4-----------|
a|--5-5---7-7--9-9-| |--2-----------|
e|--3-3---5-5--7-7-| |--x-----------|

   KAy rahain in khawabon main  
e|-x-------------x------------------|
b|-x-------------x------------------|
g--4-------------x------------------|
d|-4-------------5------------------|
a|-2-------------5------------------|
e|-x-------------3------------------|

   Kay rahain in rangon main  
e|-x-------------x------------------|
b|-x-------------x------------------|
g|-x-------------4------------------|
d|-5-------------4------------------|
a|-5-------------2------------------|
e|-3-------------x------------------|

   KAy rahain in khawabon main  
e|-x-------------x-------x----------|
b|-x-------------x-------x----------|
g|-4-------------x-------x----------|
d|-4-------------5-------x----------|
a|-2-------------5-------x----------|
e|-x-------------3-------x----------|

<-------------------------------------------------------------->
<-------------------------------------------------------------->

   Aaaa       Aa           Aaaa       Aa
e|-x-x-x---x--x--x----x----x-x-x---x--x--x--x--x|
b|-x-x-x---x--x--x----x----x-x-x---x--x--x--x--x|
g|-4-2-4---6--7--9----x----4-2-4---6--7--9--2--4|
d|-4-2-4---6--7--9----2----4-2-4---6--7--9--2--4|
a|-2-0-2---4--5--7----2----2-0-2---4--5--7--0--2|
e|-x-x-x---x--x--x----0----x-x-x---x--x--x--x--x|

<-------------------------------------------------------------->
                      FINISH
<-------------------------------------------------------------->
Comments