Jal - Ehsaas Chords & Tabs

 

Ehsaas Chords & Tabs

Jal Chords & Tabs

Version: 1 Type: Tab 0 ratings
1 star 2 stars 3 stars 4 stars 5 stars
comments

Ehsaas Tab

   
song = Ehsaas
Artist = Atif Aslam
Tabbed by Umarboy
Comments @ umarboy@hotmail.com

e-----------0-----------0------------------|
B---------0---0-----------0----------------|
G-------0-------0-----------0--------------|
D-----2---------------0-------2------------|
A---2---------------2----------------------|
E-0---------------0------------------------|
Mein Aik Fard Houn

e-----------3------------3---------------|
B---------3---3------------3-------------|
G-------0-------0------------0-----------|
D-----0---------------0-------0----------|
A---2---------------2--------------------|
E-3---------------3----------------------|
  ya aik ehsaas houn

e-----------0-----------0------------------|
B---------0---0-----------0----------------|
G-------0-------0-----------0--------------|
D-----2---------------0-------2------------|
A---2---------------2----------------------|
E-0---------------0------------------------|
 mein aik jisam houn


e-----------3------------3--------------|
B---------3---3------------3------------|
G-------0-------0------------0----------|
D-----0---------------0-------0---------|
A---2---------------2-------------------|
E-3---------------3---------------------|
  ya rooh ki pyas houn

e-----------0------------0---------------|
B---------2---2------------2-------------|
G-------2-------2------------2-----------|
D-----2---------------2------------------|
A---0---------------0--------------------|
E-0---------------0----------------------|
 ke sach ki talash hai

e-----------3------------3---------------|
B---------3---3------------3-------------|
G-------0-------0------------0-----------|
D-----0---------------0-------0----------|
A---2---------------2--------------------|
E-3---------------3----------------------|
durr akash hai
[ Tab from: http://www.guitartabs.cc/tabs/j/jal/ehsaas_tab.html ]
e-----------0------------0---------------|
B---------2---2------------2-------------|
G-------2-------2------------2-----------|
D-----2---------------2------------------|
A---0---------------0--------------------|
E-0---------------0----------------------|
manzil pas nahi

e-----------3------------3----------------|
B---------3---3------------3--------------|
G-------0-------0------------0------------|
D-----0---------------0-------0-----------|
A---2---------------2---------------------|
E-3---------------3-----------------------|
 ke tu mere pas hai

e-----0-0--0-0-0-0-----0--0---0-0-------------------|
B-----0-0--0-0-0-0-----0--0---2-0-------------------|
G-0-0-0-0--0-0-0-0--0--0--0---2-0-------------------|
D-2-2-2-2--2-2-2-2--2--2--2---2-2-------------------|
A-2-2-2-2--2-2-2-2--2--2--2---0-2-------------------|
E-0-0-0-0--0-0-0-0--0--0--0---0-0-------------------|


Em                           G
kabhe main amal hoon  kabhe bayaml hoon
Em                           G
gar tujhmain nahe   to phir baymehl hoon
A                                G
keh sack ki talaah hai      dur aakash hia
A                           G
manzil paas nahe      kya tu meray pass hai


e-----0-0--0-0-0-0-----0--0---0-0-------------------|
B-----0-0--0-0-0-0-----0--0---2-0-------------------|
G-0-0-0-0--0-0-0-0--0--0--0---2-0-------------------|
D-2-2-2-2--2-2-2-2--2--2--2---2-2-------------------| x3
A-2-2-2-2--2-2-2-2--2--2--2---0-2-------------------|
E-0-0-0-0--0-0-0-0--0--0--0---0-0-------------------|


G                         D                   A
na naaa naaaaa na na na naaa na an naaaa
G                                      D
na naaa naaaaa na na na naaa na an naaaa
G                         D                   A
na naaa naaaaa na na na naaa na an naaaa
   D         A
na na naaaa naaaafs

A                                 G
keh sach ki talash hai    door aakhash hai
A                                G
keh manzil pass nahe     Kya tuu meray passhai
Comments