Jal - Dil Hare Chords & Tabs

 

Dil Hare Chords & Tabs

Jal Chords & Tabs

Version: 1 Type: Bass Tab 0 ratings
1 star 2 stars 3 stars 4 stars 5 stars
comments

Dil Hare Bass Tab

After Intro:
                        (2x)
G|--------------------------|
D|--------------------------|
A|--------------------------|
E|---0--5--9--7---0--5--4---|


G|-------------------------------------------------------------------------|
D|-------------------------------------------------------------------------|
A|-------------------------------------------------------------------------|
E|---3---------------------------8-----------------------------------------|
     Ankhoon say jub bhi ho teri aankhein juda

G|-------------------------------------------------------------------------|
D|-------------------------------------------------------------------------|
A|-------------------------------------------------------------------------|
E|---3-----------------------8-----10-----------------7-------10-----8-----|
     mun say jub bhi ho tera man khafa       tau ji pukare, pukare tujhe

G|-------------------------------------------------------------------------|
D|-------------------------------------------------------------------------|
A|-------------------------------------------------------------------------|
E|-----------7------------8-------3----------------------------------------|
     man ghabraye a a a bulaye tujhe
[ Tab from: http://www.guitartabs.cc/tabs/j/jal/dil_hare_btab.html ]
G|-------------------------------------------------------------------------|
D|-------------------------------------------------------------------------|
A|-------------------------------------------------------------------------|
E|-----3-----------10-----8-----------3-----------8------10----------------|
     k dil harey pukare tujheeey      mun ja re manale mujhey

G|-------------------------------------------------------------------------|
D|-------------------------------------------------------------------------|
A|-------------------------------------------------------------------------|
E|---------3------10-----8-------------------3-----7-------10--3-----------|
     sunn pyare lagale galay          koh ja re tu gaa lay sub re

G|-------------------------------------------------------------------------|
D|-------------------------------------------------------------------------|
A|-------------------------------------------------------------------------|
E|---3--------------------8-----------3-------------------------8-----10---|
     tere bina zindagi laagey saza    tera saath ho yeh saza laagay jaza

G|-------------------------------------------------------------------------|
D|-------------------------------------------------------------------------|
A|-------------------------------------------------------------------------|
E|-------------7--------10------8------------7-----------8---------3-------|
     tau barte jaye tau rastey saare  duniya peechay tau hum hai aagay




Usman (Mani)...........Sekcmonks@Hotmail.com
Comments