Jal - Addat Chords & Tabs

 

Addat Chords & Tabs

Jal Chords & Tabs

Version: 3 Type: Tab 0 ratings
1 star 2 stars 3 stars 4 stars 5 stars
comments

Addat Tab

   
Song:Addat
Artist: jal
Tabbed by Osama Khan
email: pseudo_misogynist@hotmail.com


intro:

Dsus2 (xx0230):
D major (xx0231);
e|---------0------0------0------0-------1------1------1------1-----|
b|-----3-----3------3------3------3-------3------3------3------3---|
g|---2---2-----2------2------2------2-------2------2------2------2-|
d|-0---------------------------------------------------------------|
a|-----------------------------------------------------------------|
e|-----------------------------------------------------------------|


opening chords:
D sus2:			D major:
e|--0--			e|--1--|
b|--3--			b|--3--|
g|--2--			g|--2--|
d|--0--			d|--0--|
a|--x--			a|--x--|
E|--x--			E|--x--|
 (strum twice)		(strum 3 times)

then,

B Flat(x13331)
e|--1xxx-----------|
b|--3xxx-------3---|
g|--3xxx-----3-----|
d|--3xxx---3-------| x2
a|--1xxx-----------|
E|-----------------|

     theres a variation here. u can play each string separately, or simply strum the B 
with different rhythms.

verse & chorus
D major 	    C		B flat 		    C
e|--1--		e|-----		e|--1--		e|-----|
b|--3--		b|--1--		b|--3--		b|--1--|
g|--2--		g|--0--		g|--3--		g|--0--|
d|--0--		d|--2--		d|--3--		d|--2--|
a|-----		a|--3--		a|--1--		a|--3--|
E|-----		E|-----		E|-----		E|-----|

strum between these chords...listen to the song for the rhythm

the little electric solo at the beginning of the song:

e|--------1------------1---------------1-----1----|
b|------3--3--------3----3----------3----3---3----|
g|----2------2----2--------2-----3--------3--2----|
d|--0-----------0--------------3-------------0----|
a|------------------------------------------------|
E|------------------------------------------------|

its basically  an arpeggio of the two opening chords, D major & the A#

    Dm                  C           Bflat     C
Duur jitna bhi tum jujh se, paas tere  mein


Ab toh addat see hai mujhe koo aise jeene meinnn


Zindagee sai koi shikwa bhi nahin hai


Ab toh zinda hoon mein zamein mein aasman mein

electric guitar solo:
e|--------1--3h1------1--3h1---------3------4----5------|
b|------3-----------3-------------3----3------3----3----|
g|----2----------2-------------2---------2-------2---2--|x2
d|--0---------0-------------0--------------0-------0----|
a|------------------------------------------------------|
E|------------------------------------------------------|
Chahat aisee hai ye teree barhtee jai

Aahat aisee hai tereeee mujh ko satayee

yaadein gehree hain teri dil dob jao

Aur aankhon mein ye gham dum ban jai

Hay hay ehhhhh oooooh HOOOOOOOOOO

acoustic solo:
[ Tab from: http://www.guitartabs.cc/tabs/j/jal/addat_tab_ver_3.html ]
e|-5-6-5-5-5--------------------------------|
b|-----------8-6-5-5-5-6-5-3-6-6h8p6-5------|
g|------------------------------------------|
d|------------------------------------------|
a|------------------------------------------|
e|------------------------------------------|

e|-5-6-5-5--8-10-8-8/12-10-8-8-8/6-6/8-6-5-3-|
b|-------------------------------------------|
g|-------------------------------------------|
d|-------------------------------------------|
a|-------------------------------------------|
e|-------------------------------------------|

(During the chorus and verses, one can also play the A sharp major(1333xx) if the B flat 
too difficult)

   Ab toh addat see hai mujh ko aise jeene mein
	Dmaj         C            B flat    C
e|-------1--------------0------------1----------|
b|-----3--------------1-----------3--------1----|
g|---2-------------0----------3------------0----|
d|-0------------2----------3---------------2----|
a|-----------------------------------------3----|
E|----------------------------------------------|

bridge:
e|--2--    e|--3--        e|--2--    e|--1--     e|-------|
b|--3--       b|--3--      b|--3--    b|--3--     b|--1---|
g|--2--    g|--2--x2      g|--2--    g|--2--     g|--0----|
d|--0--    d|--0--        d|--0--    d|--0--     d|--2----|
a|-----    a|-----        a|-----    a|-----     a|--3----|
E|-----    E|-----        E|-----    E|-----     E|-------|


strum between these chords during the "aaah haa" and "Ooh ho". again, listen to the song for the rhythm.

resume chord progression for last verses: "Sabhee batein hain, Sabhee yaadein hain"
D major (xx0231)
C (x3201x)
B flat (x13331)

The second C is not played...
Guitar 2: electric ( this is played along with the chords in the last verses)
e|----------------------------------------------|
b|----------------------------------------------|
g|----------------------------------------------|
d|----------------------------------------------|
a|----------------------------------------------|
E|-4-----------4------------2----------2--------|


During these verses, in the video Goher seems to be playing these chords:

e|-----------0--|
b|-----------0--|
g|--8--7--5--3--|
d|--8--6--4--3--|
a|--8--6--4--1--|
E|--6--4--2--2--|

strum between these chords on the electric along with the basic chords on acoustic. 
the last chord once. im not a 100% on this but its close enough.

outro:
	Dmaj         C            B flat   C
e|-------1--------------0------------1----------|
b|-----3--------------1-----------3--------1----|
g|---2-------------0----------3------------0----|
d|-0------------2----------3---------------2----|
a|-----------------------------------------3----|
E|----------------------------------------------|
Comments