Jal - Addat Chords & Tabs

 

Addat Chords & Tabs

Jal Chords & Tabs

Version: 1 Type: Tab 0 ratings
1 star 2 stars 3 stars 4 stars 5 stars
comments

Addat Tab

   
Song: Addat
Band: Jal
Country: Pakistan
Official Site: http://www.jaltheband.com

Tabbed by: Saad Naveed Pall
toovikkid@yahoo.com

Play with the guitar tuned a note down, these tabs are perfect!

Chords used:
Dm
|--1---|
|--3---|
|--2---|
|--0---|
|------|
|------|

C
|--0---|
|--1---|
|--0---|
|--2---|
|--3---|
|------|


Bb
|--1---|
|--3---|
|--3---|
|--3---|
|------|
|------|


Intro..
|------------0--------0--------0--------0------|
|------3--------3--------3--------3--------3---|
|---2-----2--------2--------2--------2--------2|
|0---------------------------------------------|
|----------------------------------------------|
|----------------------------------------------|

|------------0--------0--------0--------0------|
|------3--------3--------3--------3--------3---|
|---3-----3--------3--------3--------3--------3|
|3---------------------------------------------|
|----------------------------------------------|
|----------------------------------------------|

Repeat this a few times through:
Aaaaaa.. Na janey kab sey.. umeedain kuch baqi hain
Mujhe phir bhi teri yaad kyoon aati hai
               
Na janey kab sey
|-------------0-------------|
|-------------3-------------|
|-------------2-------------|
|-------------0-------------|
|---------------------------|
|---------------------------|


Then comes..
[ Tab from: http://www.guitartabs.cc/tabs/j/jal/addat_tab.html ]
|-0-0-0---1-1-1---0-0-0---1-1-1---0-0-0---1-1-1---0-0-0---1-1-1---|
|-3-3-3---3-3-3---3-3-3---3-3-3---3-3-3---3-3-3---3-3-3---3-3-3---|
|-2-2-2---2-2-2---2-2-2---2-2-2---3-3-3---3-3-3---3-3-3---1-1-1---|
|-0-0-0---0-0-0---0-0-0---0-0-0---3-3-3---3-3-3---3-3-3---3-3-3---|
|-----------------------------------------------------------------|
|-----------------------------------------------------------------|

Repeat a couple of times, then..



    Dm                  C           Bb     C
Duur jitna bhi tum mujh se, paas tere  mein

Ab toh addat see hai mujhe koo aise jeene meinnn

Zindagee sai koi shikwa bhi nahin hai

Ab toh zinda hoon mein zamein mein aasman mein


   Dm              Dm          Bb      Bb

   Dm              Dm          Bb        C


   Dm                  C           Bb     C
Chahat aisee hai ye teree barhtee jai

Aahat aisee hai teree mujh ko satayee

yaadein gehree hain teri dil dob jao

Aur aankhon mein ye gham dum ban jai

Hay hay ehhhhh oooooh HOOOOOOOOOO


Then comes the solo..

e|-5-6-5-5-5--------------------------------
b|-----------8-6-5-5-5/6-5-3-6-6h8p6-5------
g|------------------------------------------
d|------------------------------------------
a|------------------------------------------
e|------------------------------------------

e|-5-6-5-5--8-10-8-8/12-10-8-8-8/6-6/8-6-5-3
b|------------------------------------------
g|------------------------------------------
d|------------------------------------------
a|------------------------------------------
e|------------------------------------------


Kay u get the hang of it.. just keep on doin the same thing till the end..


   Dm                              Bb       C
Subhee batein hain subhee yaadein haiin

Bhula do unhein mitaa do unhein
Comments