Jake Bugg - Two Fingers Chords & Tabs

 

Two Fingers Chords & Tabs

Jake Bugg Chords & Tabs

Version: 1 Type: Bass Tab 0 ratings
1 star 2 stars 3 stars 4 stars 5 stars
comments

Two Fingers Bass Tab

Jake Bugg - Two Fingers

-This is my first tab plus the Bass isn't very loud in this song so this tab isn't perfect.

-I've also added bits which are not in the actual song, but I play them when 
performing this song with my band.

Tuning - EADG

Intro (Muted Guitar strums)

G|-----------------------------------|
D|-----------------------------------|
A|-----------------------------------|
E|-----------------------------------|

1st Verse

G|-----------------------------------|-----------------------------------|
D|-----------------------------------|-----------------------------------|
A|-----------------------------------|-1---------------------------------|
E|-1---------------------------------|-----------------------------------|

G|-----------------------------------|-----------------------------------|
D|-----------------------------------|-----------------------------------|
A|-3---------------------------------|-1-1-1-1-1-1-1-1-1-1-1-1-1-1/10h12-|
E|-----------------------------------|-----------------------------------|

G|-----------------------------------|-----------------------------------|
D|-----------------------------------|-----------------------------------|
A|-----------------------------------|-1-1-1-1-1-1-1-1-1-1-1-1-1-1-1-1---|
E|-1-1-1-1-1-1-1-1-1-1-1-1-1-1-1-1---|-----------------------------------|

G|-----------------------------------|-----------------------------------|
D|-----------------------------------|-----------------------------------|
A|-3-3-3-3-3-3-3-3-3-3-3-3-3-3-3-3---|-1-1-1-1-1-1-1-1-1-1-1-1-1-1/10h12-|
E|-----------------------------------|-----------------------------------|

Chorus

G|-------10-------------10-----------|-----------------------------------|
D|-10-12----12-10-10-12----12-10-----|-------10-------------10-----------|
A|-----------------------------------|-10-12----12-10-10-12----12-10-12--|
E|-----------------------------------|-----------------------------------|

G|----12-10----------12-10-----------|-----------------------------------|
D|-10-------12-10-10-------12-10-----|-------10-------------10-----------|
A|-----------------------------------|-10-12----12-10-10-12----12-10-12--|
E|-----------------------------------|-----------------------------------| x2

Verse 2

G|-----------------------------------|-----------------------------------|
D|-----------------------------------|-----------------------------------|
A|-----------------------------------|-1-1-1-1-1-1-1-1-1-1-1-1-1-1-1-1---|
E|-1-1-1-1-1-1-1-1-1-1-1-1-1-1-1-1---|-----------------------------------|
[ Tab from: http://www.guitartabs.cc/tabs/j/jake_bugg/two_fingers_btab.html ]
G|-----------------------------------|-----------------------------------|
D|-----------------------------------|-----------------------------------|
A|-3-3-3-3-3-3-3-3-3-3-3-3-3-3-3-3---|-1-1-1-1-1-1-1-1-1-1-1-1-1-1/10h12-|
E|-----------------------------------|-----------------------------------|

Chorus 2

G|-------10-------------10-----------|-----------------------------------|
D|-10-12----12-10-10-12----12-10-----|-------10-------------10-----------|
A|-----------------------------------|-10-12----12-10-10-12----12-10-12--|
E|-----------------------------------|-----------------------------------|

G|----12-10----------12-10-----------|-----------------------------------|
D|-10-------12-10-10-------12-10-----|-------10-------------10-----------|
A|-----------------------------------|-10-12----12-10-10-12----12-10-12--|
E|-----------------------------------|-----------------------------------| x2

Bridge

G|-----------------------------------|-----------------------------------|
D|-----------------------------------|-----------------------------------|
A|-----------------------------------|-1-1-1-1-1-1-1-1-1-1-1-1-1-1-1-1---|
E|-1-1-1-1-1-1-1-1-1-1-1-1-1-1-1-1---|-----------------------------------|

G|-----------------------------------|-----------------------------------|
D|-----------------------------------|-----------------------------------|
A|-----------------------------------|-1-1-1-1-1-1-1-1-1-1-1-1-1-1-1-1---|
E|-1-1-1-1-1-1-1-1-1-1-1-1-1-1-1-1---|-----------------------------------|

G|-----------------------------------|-------------------------0-2-3-5---|
D|-----------------------------------|-----------0-2-3---0-2-3-----------|
A|-3-------------3-------------------|-----0-2-3-------3-----------------|
E|-----------------------------------|-1-3-------------------------------|


Chorus 3

G|-------10-------------10-----------|-----------------------------------|
D|-10-12----12-10-10-12----12-10-----|-------10-------------10-----------|
A|-----------------------------------|-10-12----12-10-10-12----12-10-12--|
E|-----------------------------------|-----------------------------------|

G|----12-10----------12-10-----------|-----------------------------------|
D|-10-------12-10-10-------12-10-----|-------10-------------10-----------|
A|-----------------------------------|-10-12----12-10-10-12----12-10-12--|
E|-----------------------------------|-----------------------------------| x2

Outro

G|-----------------------------------|-----------------------------------|
D|-----------------------------------|-----------------------------------|
A|-----------------------------------|-3-3-3-3-3-3-3-3-3-3-3-3-3-3-3-3---|
E|-1-1-1-1-1-1-1-1-1-1-1-1-1-1-1-1---|-----------------------------------|

G|-----------------------------------|-------------------------0-2-3-5---|
D|-----------------------------------|-----------0-2-3---0-2-3-----------|
A|-1-1-1-1-1-1-1-1-1-1-1-1-1-1-1-1---|-----0-2-3-------3-----------------|
E|-----------------------------------|-1-3-------------------------------|

Finish on F ( E|1 )

Tabbed by Matthew.
Comments