Jakalope - Feel It Chords & Tabs

 

Feel It Chords & Tabs

Jakalope Chords & Tabs

Version: 1 Type: Tab 0 ratings
1 star 2 stars 3 stars 4 stars 5 stars
comments

Feel It Tab

   
Ok won't accept tab untill you get info on the band...
Go here:
http://www.orangerecordlabel.com/artists/jakalope/bio.html

Their a Canadian based band.

Artist: Jakalope
Song: Feel it
Tabber: Samuel Scheideman
Comments: I doing this on an acoustic so it may need to be adjusted to fit the 
of an electric better.
Tuning: Drop-D half step
E-mail addy: klayfeather@hotmail.com


Intro/Verse: Figure out the strumming. Simple stuff.

Acoustic
Eb|--3--------0--------0----------------|
Bb|--3--------2--------0----------------|
Gb|--0--------2--------1----------------|
Db|--0--------2--------2----------------|
Ab|--2--------0--------2----------------|
Db|--x-----------------2----------------|
 | Distorted Electric. Palm mute
Eb|-------------------------------------|
Bb|-------------------------------------|
Gb|-------------------------------------|
Db|--5-------7---------2----------------|
Ab|--5-------7---------2----------------|
Db|--5-------7---------2----------------|

Pre-Chorus:

Acoustic:
I start to press my skin to you.... Feast your eyes... Cover Me...
Eb|--0------------------------------3------------------0------------|
Bb|--0------------------------------3------------------0------------|
Gb|--1------------------------------0------------------1------------|
Db|--2------------------------------0------------------2------------|
Ab|--2------------------------------2------------------2------------|
Db|--2------------------------------x------------------2------------|
 | Distorted Electric. No Palm mute (second Pre-Chorus only)
Eb|-----------------------------------------------------------------|
Bb|-----------------------------------------------------------------|
Gb|-----------------------------------------------------------------|
Db|--2-----------------------------5-------------------2------------|
Ab|--2-----------------------------5-------------------2------------|
Db|--2-----------------------------5-------------------2------------|
[ Tab from: http://www.guitartabs.cc/tabs/j/jakalope/feel_it_tab.html ]
Acoustic:
I start to press my skin to you.... Feast your eyes... Cover Me...
Eb|--3--------0----|
Bb|--3--------2----|
Gb|--0--------2----|
Db|--0--------2----|
Ab|--2--------0----|
Db|--x-------------|
 | Distorted Electric. No Palm mute (second Pre-Chorus only: Volume swell first time on 
Ab chord)
Eb|----------------|
Bb|----------------|
Gb|----------------|
Db|--5--------7----|
Ab|--5--------7----|
Db|--5--------7----|


Chorus: Repeat 3X (This part sounds like the guitars are over dubbed. Like 4 or five 
sort of a thing. This cord type sounds right when played with the recording but sounds 
by its self since the high notes are quieter and covered a bit on the recording.)
Eb|------------|
Bb|-15\-13\-5--|
Gb|-14\-12\-4--|
Db|-12\-10\-2--|
Ab|-12\-10\-2--|
Db|-12\-10\-2--|

End it on
Eb|----------|
Bb|--10/-12--|
Gb|--9/--11--|
Db|--7/--9---|
Ab|--7/--9---|
Db|--7/--9---|

Bridge:
Eb|----------------------|------------------------|-------------------|
Bb|----------------------|------------------------|-------------------|
Gb|-11----14----16----13-|-11----14----16----(16)-|-11----14---16---13|
Db|----------------------|------------------------|-------------------|
Ab|----------------------|------------------------|-------------------|
Db|----------------------|------------------------|-------------------|

Outro Lead Piece:
 Distorted Electric.
     |3:31       |3:35
Eb|--20B~~--????--------------------------------|
Bb|-------????--------------------------????----|
Gb|--------------15b-15b-15b-15b----------?????-|
Db|------------------------------15~~~----------|
Ab|---------------------------------------------|
Db|---------------------------------------------|

    |3:41 Real fast down picking                 |3:47
Eb|--------------------------------------------------------------16-|
Bb|----------------------------------------------17-18-17--16-18----|
Gb|-13-13-13-13-13-13-13-13---?????????????????----------16---------|
Db|-----------------------------------------------------------------|
Ab|-----------------------------------------------------------------|
Db|-----------------------------------------------------------------|

| /  slide up
| \  slide down
| h  hammer-on
| p  pull-off
| ~  vibrato
| +  harmonic
| x  Mute note
Comments