Jagged Edge - Where The Party At Chords & Tabs

 

Where The Party At Chords & Tabs

Jagged Edge Chords & Tabs

Version: 4 Type: Tab 0 ratings
1 star 2 stars 3 stars 4 stars 5 stars
comments

Where The Party At Tab

INTRO
E|-------------|                |-------------------|
B|-------------|                |-14-15b-13-11-13---|
G|-13-13-15-13-| REPEAT 6 TIMES |----------------12-|
D|-------------| THEN THIS--->  |-------------------|
A|-------------|                |-------------------|
E|-------------|                |-------------------|
[ Tab from: http://www.guitartabs.cc/tabs/j/jagged_edge/where_the_party_at_tab_ver_4.html ]
MAIN PARTS (fast picking)(listen to the song for how each part repeats)
E|--------------------------------------------------|
B|--------------------------------------------------|
G|---------------------------------15-15-15-15-15---|
D|-15-15-15-15-15---17-17-17-17-17------------------|
A|--------------------------------------------------|
E|--------------------------------------------------|

E|--------------------------------------------------|
B|--------------------------------------------------|
G|-13-13-13-13-13--12-12-12-12-12--17-17-17-17-17---|
D|--------------------------------------------------|
A|--------------------------------------------------|
E|--------------------------------------------------|

E|--------------------------------------------------|
B|-------------14-15b-13-11-13----------------------|
G|-13-13-15-13-----------------12-------------------|
D|--------------------------------------------------|
A|--------------------------------------------------|
E|--------------------------------------------------|
Comments