Jaco Pastorius - Chicken Chords & Tabs

 

Chicken Chords & Tabs

Jaco Pastorius Chords & Tabs

Version: 1 Type: Bass Tab 0 ratings
1 star 2 stars 3 stars 4 stars 5 stars
comments

Chicken Bass Tab

By joe bowers

it really is easy its jus this over and over and over again

intro
|--7-5---------------------------------------|
|---------7---5------------------------------|
|-----------------7---5----------------------|
|------------------------5-------------------|


|--------------------------------------------|
|--------------------------5--8--------------|
|------------5-------6--8--------------------|
|-6-------6----------------------------------|x8
[ Tab from: http://www.guitartabs.cc/tabs/j/jaco_pastorius/chicken_btab.html ]
bridge
|--------------------------------------------|
|--------------------------------------------|
|--5---5-4---4-3---3-2---2-------------------|
|-----------------------------1--------------|
                           ^
                           |
                           |
                           watch out here the
                           gaps a bit bigger
                           than u might think 
                           listen to the song 
                           to get the timing 
                           right
Comments