Jackyl - Push Comes To Shove Chords & Tabs

 

Push Comes To Shove Chords & Tabs

Jackyl Chords & Tabs

Version: 1 Type: Tab 0 ratings
1 star 2 stars 3 stars 4 stars 5 stars
comments

Push Comes To Shove Tab

Intro.
E|-------------------|  |--------------|
B|-------------------|  |--------------|
G|------------3/5--5-|  |--------15----|
D|-3/5--5-----3/5--5-|  |--15/17----17-|
A|-3/5--5-----1/3--3-|  |--------------|
E|-1/3--3------------|x8|--------------|
		  *Opening Lead Riff

````````````````````````````````````````````````````
E|------------------------|  
B|------------------------|  
G|-----------3/--5-53-0--|  
D|-3/--5-5---3/--5-53-0--|  
A|-3/--5-5---1/--3-31-0--|  
E|-1/--3-3----------------|x4
[ Tab from: http://www.guitartabs.cc/tabs/j/jackyl/push_comes_to_shove_tab.html ]
E|----------------------------------------------
B|----------------------------------------------
G|------3---------------------------------------
D|-3/-5-3-5-5-55-5/-8-8-88-8/-10-10-10/8----5-x-
A|-3/-5-1-5-5-55-5/-8-8-88-8/-10-10-10/8----5-x-
E|-1/-3---3-3-33-3/-6-6-88-6/--8--8--8/6--0-3-x-

           ------------------------------------|
           ------------------------------------|
           ------3----------3-3-33-3/-5-5-55-5-|
           -3/-3-3-5-5-55-x-3-3-33-3/-5-5-55-5-|
           -3/-5-1-5-5-55-x-1-1-11-1/-3-3-33-3-|
           -1/-5---3-3-33-x--------------------|


Comments