Jackyl - Lumberjack Chords & Tabs

 

Lumberjack Chords & Tabs

Jackyl Chords & Tabs

Version: 1 Type: Tab 2 ratings
1 star 2 stars 3 stars 4 stars 5 stars
comments

Lumberjack Tab

VERSE 1 E----------------------------------------     VERSE 1
        B----------------------------------------
        G----------------------------------------
        D----------------------------------------
        A----5----5----7----7----5--5--7--5--7
        E----3----3----3----3----3--3--3--3--3 PLAY 3X

E--------------------------------------
B--------------------------------------
G--------------------------------------
D---5----5----7----7----5--5--7--5--7
A---3----3----3----3----3--3--3--3--3
E-----------------------------------------  PLAY 3X AND GO BACK TO FIRST ONE
[ Tab from: http://www.guitartabs.cc/tabs/j/jackyl/lumberjack_tab.html ]
Comments