Jackyl - I Stand Alone Chords & Tabs

 

I Stand Alone Chords & Tabs

Jackyl Chords & Tabs

Version: 1 Type: Tab 2 ratings
1 star 2 stars 3 stars 4 stars 5 stars
comments

I Stand Alone Tab

                             Jackyl
                         "I Stand Alone"
                      Tab'd by: Shane Houston


Opening riff

E-----------------------------------------------------
B-----------------------------------------------------
G----------------4--4---------5--4--------------------
D--4--2--2-------4--4---------5--4--2--4--2-----------
A--4--0--0--2p0--2--2--2p0h2--3--2--0--4--2-----------
E--2--------2p0------------------------2--0-----------



Verse riff

E-----------------------------------------------------
B-----------------------------------------------------
G--------4--------------(4)bend-----------------------
D--4--2--4--2--4--2--4--(4)---------------------------
A--4--0--2--0--4--0--4--(2)---------------------------
E--2-----------2-----2---------------------------------



Play this on 2nd part of chorus

E-----------------------------------------------------
B-----------------------------------------------------
G-----------------------------------------------------
D--4--4--4--4--2--2--2--2--4--4--4--4--2--2--2--2-----
A--4--4--4--4--2--2--2--2--4--4--4--4--2--2--2--2-----
E--2--2--2--2--0--0--0--0--2--2--2--2--0--0--0--0-----



Solo:It's not that bad if you practice it



E--14-14-14-14-14-19-19-17-17p14-19p14-17p14-19p14-17p14-19p14-17p14-19p14-17p14-19p14-17p14-19p14------
B-------------------------------------------------------------------------------------------------------
G-------------------------------------------------------------------------------------------------------


[ Tab from: http://www.guitartabs.cc/tabs/j/jackyl/i_stand_alone_tab.html ]
E-------------------------------------------------------------------------------------------------------
B-----------(16)bend-16--14-[14]mute-14-[14]mute-(16)bend-(16)bend-16--14-[14]mute-14-[14]mute----------
G-(16)bend--(16)-----16--14-[14]-----14-[14]-----(16)-----(16)-----16--14-[14]-----14-[14]--------------
D-----------------------------------------------------------------------------------------------16hold--



E---------------------------------------------------------------------------------------------------
B----------------------------------------------------use-pinch-harmonics----------------------------
G--------------------------------------14----------{16-16-16}-{14h16p14}-(16)bend-16-16p14----------
D--16-16-14h16-14h16----------14h16-14----16-14--------------------------------------------16-16----
A--------------------12h14h16-------------------16--------------------------------------------------



E--------------14-14----------14-14-14h17-19p17p14-17p14p12---------------------------------------------------------
B--------------------17p14h17--------------------------------19p17p14-----------------------------------------------
G-----13-14-16--------------------------------------------------------16-14h16p16-16-16p14-16p14-16p14--------------
D--16--------------------------------------------------------------------------------------------------16hold-------
A-------------------------------------------------------------------------------------------------------------------

Any Questions Please email me at:  shanehouston@atmc.net
Comments