Jackyl - Down On Me Chords & Tabs

 

Down On Me Chords & Tabs

Jackyl Chords & Tabs

Version: 5 Type: Tab 0 ratings
1 star 2 stars 3 stars 4 stars 5 stars
comments

Down On Me Tab

                          DOWN ON ME
                            JACKYL
                 TABBED BY:DARYL GUTIERREZ
                E-MAIL MOONFACE01@MEDIAONE.NET

[ Tab from: http://www.guitartabs.cc/tabs/j/jackyl/down_on_me_tab_ver_5.html ]
                         LISTEN TO THE CD
 INTRO:         THIS CORD IS PLAYED WITH THE INTRO SECOND GUITAR
----------------------------^---------------------------------------------------|
----------------------------^---------------------------------------------------|
-5555555577777777-----------5---------------------------------------------------|
-5555555577777777--2X-------5-2X------------------------------------------------|
-3333333355555555-----------3---------------------------------------------------|
--------------------------------------------------------------------------------|
^PALM MUTE WITHE DELAY AND REVERB^

    MAIN RIFF
----------------------------------------| THIS IS PLAYED 7X THEN 4X ECT.
----------------------------------------|  LISTED TO THE CD.
-2--2-----7-7---------------------------|  PLAY THIS THEN GO BACK TO THE INTRO
-2--2-----7-7---7-----------------------|  THE WHOLE SONG IS PLAYED THIS WAY.
-0--0-----5-5---7-----------------------|       VERY SIMPLE SONG. TO LEARN
----------------5-----------------------|   HAVE FUN WITH IT. ROCK ON
Comments