Jackyl - Down On Me Chords & Tabs

 

Down On Me Chords & Tabs

Jackyl Chords & Tabs

Version: 1 Type: Tab 1 rating
1 star 2 stars 3 stars 4 stars 5 stars
comments

Down On Me Tab

This a great 80's rock song, and it goes a little somethin like 
this...



[ Tab from: http://www.guitartabs.cc/tabs/j/jackyl/down_on_me_tab.html ]
intro:                     
|-------------------------------------------------------------------|
|-5-5-5---3-3-3-----------------------------------------------------|
|-5-5-5---3-3-3-----------------------------------------------------|
|-5-5-5---3-3-3-----------------------------------------------------|
|-------------------------------------------------------------------|
|-------------------------------------------------------------------|

then the song pretty much repeats from here...

|-------------------------------------------------------------------|
|-------------------------------------------------------------------|
|-------------7-7---------------------------------------------------|
|-7--5--7--5--7-7--7------------------------------------------------|
|-7--5--7--5--5-5--7------------------------------------------------|
|-5--3--5--3-------5------------------------------------------------|

-Stir well, bake until cooked, enjoy...
Comments