Jacksoul - Somedays Chords & Tabs

 

Somedays Chords & Tabs

Jacksoul Chords & Tabs

Version: 1 Type: Chords 0 ratings
1 star 2 stars 3 stars 4 stars 5 stars
comments

Somedays Chords

   
Song: Somedays
Artists: Jacksoul



Chords Used:

     EADGBe
A    --7655
D    --0232
E    --2100
F#m  --4222
G#m  --6444


Song Structure:

Intro/
Verse/
Verse/
Chorus/
Verse/
Chorus/
Chorus/
Final Verse/
Chorus/
Chorus


Intro:

   /= quick slide

 A                                 F#m                               D                                 E
e 4/5-----------------------------| 0/2-----------------------------| --------2-------0---------------| 2---0-------2/4-------4-4-4-4-4-|
B --------5-----------------------| ---------2----------------------| ------3-------------------------| 0-------------------------------|
G ----------------6---------------| -----------------2--------------| ---2----------------------------| 1-------------------------------|
D 7-------------------------------| 4-------------------------------| 0-------------------------------| 2-------------------------------|
A --------------------------------| --------------------------------| --------------------------------| --------------------------------|
E --------------------------------| --------------------------------| --------------------------------| --------------------------------|


[ Tab from: http://www.guitartabs.cc/tabs/j/jacksoul/somedays_crd.html ]
 A                                 F#m                               D                                 E                    
e 4/5-----------------------------| ----2---------------------------| ------2---------0---------------| 4-------------------------------|
B --------5-------------------0---| 5---2---------------------------| ----3---------3-----------------| 0-------------------------------|
G ----------------6-----------1---| 6---2---------------------------| --2-----------------------------| 1-------------------------------|
D 7---------------------------2---| 7---4---------------------------| 0-------------------------------| 2-------------------------------|
A --------------------------------| --------------------------------| --------------------------------| --------------------------------|
E --------------------------------| --------------------------------| --------------------------------| --------------------------------|


Verse:

1 + 2 + 3 + 4 +      1 + 2 + 3 + 4 +      1 + 2 + 3 + 4 +         1 + 2 + 3 + 4 +
A                    F#m                  D                       E

1 + 2 + 3 + 4 +      1 + 2 + 3 + 4 +      1 + 2 + 3 + 4 +         1 + 2 + 3 + 4 +
A                    F#m                  D     E                 A 


Final Verse:

1 + 2 + 3 + 4 +      1 + 2 + 3 + 4 +      1 + 2 + 3 + 4 +         1 + 2 + 3 + 4 +
A                    F#m                  D                       E

1 + 2 + 3 + 4 +      1 + 2 + 3 + 4 +      1 + 2 + 3 + 4 +         1 + 2 + 3 + 4 +
A                    F#m                  D     E                 D     E

1 + 2 + 3 + 4 +        
D     E              


Chorus:

1 + 2 + 3 + 4 +      1 + 2 + 3 + 4 +      1 + 2 + 3 + 4 +         1 + 2 + 3 + 4 +
A                                         F#m

1 + 2 + 3 + 4 +      1 + 2 + 3 + 4 +      1 + 2 + 3 + 4 +         1 + 2 + 3 + 4 +
D                    E                    D                       E   F#m G#m A

1 + 2 + 3 + 4 + 
A

  
P.S. Site rules prohibits me from inculding lyrics so listen to the song to get them,
or you can use the net.
Comments