Jackson Michael - Thriller Chords & Tabs

 

Thriller Chords & Tabs

Jackson Michael Chords & Tabs

Version: 1 Type: Bass Tab 0 ratings
1 star 2 stars 3 stars 4 stars 5 stars
comments

Thriller Bass Tab

Michael Jackson - Thriller

Intro: (when the horns (or something like that) enter)

G ----------------
D ---2-----2-4----
A -4-----------4--
E ----------------

Main Riff: (play for most of the song)

      1       2       3       4   
[ Tab from: http://www.guitartabs.cc/tabs/j/jackson_michael/thriller_btab.html ]
G -----------------------------------
D ------------2---4------------------
A --4-2---4-----------4-------r------
E -----------------------------------


End-Of-Chorus: (just a few staccato (mighty short) notes)

G -------------
D -------------
A ----------2--  And then back to the main riff.
E -5----2------


Bridge: Combination of difficult part and laziness. Sorry. No tab for this part.


Ending: (scary talking part)

G -------
D -------
A -4-44-- X MANY!
E -------

__________
Av Robert.

Comments