Jackson Michael - Give In To Me Chords & Tabs

 

Give In To Me Chords & Tabs

Jackson Michael Chords & Tabs

Version: 1 Type: Tab 0 ratings
1 star 2 stars 3 stars 4 stars 5 stars
comments

Give In To Me Tab

   
  
 /  slide up
 \  slide down
 () ghost note
 p  pull off
 h  hammer on
 v  vibrato 
 b  bend

 intro          (clean guitar)

 e ---------------------------------------------------------------
 B ---------------------------------------------------------------
 G ---------------0-------------------------0--------------0------
 D ---------2/4-------4----2------------2--------------4----------
 A ------2----------------------0---3-----------2-(3)-------------
 E ---0-----------------------------------------------------------

   riff 1    (0:41)   this part is played with distortion 

 e ------------------------------
 B ------8-----------------------
 G ------9-----------------------
 D ------9---------9-------------
 A ------7---------9-------------
 E --0---7-----5---7-------------

  solo 1  (2:18)
[ Tab from: http://www.guitartabs.cc/tabs/j/jackson_michael/give_in_to_me_tab.html ]
 e -------------------------------------------7-10--------7--10----
 B ----4b5--2-4-5-7b8--7h8p7-5---12b14---4b5--------10--------------
 G ----------------------------------------------------------------
 D ----------------------------------------------------------------
 A ----------------------------------------------------------------
 E ----------------------------------------------------------------

 e ------------------------------------------------11b13--11^------
 B --12p10\8-8-10-11/14-15\13-15\13-11/14-------12-----------------
 G ---------------------------------------14/12--------------------
 D ----------------------------------------------------------------
 A ----------------------------------------------------------------
 E ----------------------------------------------------------------

 e --12b14---12b14---12b14-12h13p12--14^--14^vvvvvv----------17b19-
 B -------------------------------------------------15-13p12-------
 G ----------------------------------------------------------------
 D ----------------------------------------------------------------
 A ----------------------------------------------------------------
 E ----------------------------------------------------------------

 e-mail: slashrcp@hotmail.com
 
Comments