Jackson Michael - Billie Jean Chords & Tabs

 

Billie Jean Chords & Tabs

Jackson Michael Chords & Tabs

Version: 1 Type: Bass Tab 1 rating
1 star 2 stars 3 stars 4 stars 5 stars
comments

Billie Jean Bass Tab

   
----------------------------------------------------------------------------
-------------------| 
------- /--\ /--\ |\  ||\   |--\ /--\/---\ | /--\ |\  |/--\\  //---\
--------------------------| 
------- | __ |__/ | \ || \  |__/ |__/  |   | |  | | \ ||__/ \/   |
----------------------------| 
------- |  | |    |  \||--\ |  \ |     |   | |  | |  \||    /\   | ------- By
-----------------| 
------- \__/ \__/ |   \|   \|   \\__/  |   | \--/ |   \\__//  \  | - GENARO
"ORANGE" DESIA ----| 
--------------------------------------------------------------------
ORANGEGDC@HOTMAIL.COM ----| 
----------------------------------------------------------------------------
-------------------| 
ARTIST: MICHAEL JACKSON 
ALBUM:  THRILLER '82 
SONG:   BILLIE JEAN 

BASS TAB 
  

RIFF.1 (in F#) 

    O-o-O-o-O-o-O-o 
G--------------------| 
D---4---2-4-2--------| 
A-----4-------4-2-4--| 
E--------------------| 

RIFF.2 (in B) 
[ Tab from: http://www.guitartabs.cc/tabs/j/jackson_michael/billie_jean_btab.html ]
    O-o-O-o-O-o-O-o     O-o-O-o-O-o-O-o 
G---4---2-4----------|--4---2-4----------| 
D-----4-------4-2-4--|----4-------4-2----| 
A--------------------|----------------4--| 
E--------------------|-------------------| 
  

RIFF.3  BRIDGE (in D-F#m-Db) 

    O-o-O-o-O-o-O-o     O-o-O-o-O-o-O-o 
G--------------------|-------------------| 
D--------------------|--4-4-4-4-4-4-4-4--| 
A---5-5-5-5-5-5-5-5--|-------------------| 
E--------------------|-------------------| 

PLAY IT 3 TIMES BEFORE NEXT RIFF 
  

NEXT RIFF 

    O-o-O-o-O-o-O-o     O-o-O-o-O-o-O-o 
G--------------------|-------------------| 
D--------------------|--------------0-2--| 
A---5-5-5-5-5-5-5-5--|--4-4-4-4-4-4------| 
E--------------------|-------------------| 

RETURN TO RIFF.1 AND RIFF.2 

AND THAT'S ALL... 
  
----------------------------------------------------------------------------
--------------- 
 PLEASE:  I'M LOOKING FOR THE "BILLIE JEAN" FULL GUITAR TAB 
              AND HUMAN NATURE CHORDS. 
----------------------------------------------------------------------------
--------------- 


Comments