Jackson Michael - Beat It Chords & Tabs

 

Beat It Chords & Tabs

Jackson Michael Chords & Tabs

Version: 3 Type: Bass Tab 0 ratings
1 star 2 stars 3 stars 4 stars 5 stars
comments

Beat It Bass Tab

Chorus

G------------------
D-------5-2-4-2---
A-----2---------4-4
E-0-3--------------

[ Tab from: http://www.guitartabs.cc/tabs/j/jackson_michael/beat_it_btab_ver_3.html ]
Then play 
G------------------
D-------5-2-4-2---
A-----2---------4-
E-0-3--------------

and back to the start until

the main part just slap E in rythm 
Comments