Jackson Michael - Beat It Chords & Tabs

 

Beat It Chords & Tabs

Jackson Michael Chords & Tabs

Version: 2 Type: Bass Tab 0 ratings
1 star 2 stars 3 stars 4 stars 5 stars
comments

Beat It Bass Tab

song: beat it
artist: michael jackson (who's bad!?)
originally tabbed by: callaghan (spoogy@ix.netcom.com)
corrected by: omar de leo (omdslam99@aol.com) 8/02


Drop D tuning


chorus

G|------------------------------------|
D|-----------4--1---1--3--1-----------|
A|--------1------------------4--4-----|
D|-1---4------------------------------|

G|--------------------------------|
D|-----------4--1---1--3--1-------|
A|--------1------------------4----|
D|-1---4--------------------------|


verse
[ Tab from: http://www.guitartabs.cc/tabs/j/jackson_michael/beat_it_btab_ver_2.html ]
G|-------------------------------|
D|-1-1-1---------1-1-1-----------|
A|--------4-4-4---------4-4-4----|
D|-------------------------------|

G|-------------------------------|
D|---------------1-1-1-----------|
A|-2-2-2--4-4-4---------4-4-4----|
D|-------------------------------|


bridge

G|-----------------|
D|-1-1-1--1-1-1----|
A|-----------------|
D|-----------------|



chorus x2
verse  x2
chorus x2
verse  x2
chorus x4
bridge x8
verse  x2
chorus till end


ladies and gents, this is my first tab...i think it's fairly accurate (say, 98%)...
easy, funky song...good fretboard practice...ENJOY!!!
Comments