Jackson Alan - Midnight In Montgomery Chords & Tabs

 

Midnight In Montgomery Chords & Tabs

Jackson Alan Chords & Tabs

Version: 1 Type: Tab 0 ratings
1 star 2 stars 3 stars 4 stars 5 stars
comments

Midnight In Montgomery Tab

  title: midnight in montgomery
   by: alan jackson
notes: the tunning in normal (ebgdae)
intro:
-----------0-1---1----------0-1-----0-
---------3----------------3----------
------2-----------------2-----------
---0-----------0-----0-----------0---
----------------------------------
-0----------------0-----------------
[ Tab from: http://www.guitartabs.cc/tabs/j/jackson_alan/midnight_in_montgomery_tab.html ]
---------0-------------0---------------
-------3-------------3-----------------
-----0-------0-----0------0----------:----
---2-------2-----2------2----------------
-3-------------3-----------------------
-------------------------------------
 This the first time put I a song on the internet 
I have so much fun with this I hope you like it
Comments